The Rasmus - In The Shadows Chords & Tabs

 

In The Shadows Chords & Tabs

The Rasmus Chords & Tabs

Version: 4 Type: Tab 0 ratings
1 star 2 stars 3 stars 4 stars 5 stars
comments

In The Shadows Tab

#----------------------------------PLEASE NOTE---------------------------------#
#This file is the author's own work and represents their interpretation of the #
#song. You may only use this file for private study, scholarship, or research. #
#------------------------------------------------------------------------------#

Artist: The Rasmus
Titel: In the shadows
Transcribed by: TheWIzp
Date: Sunday 03 - 04 - 27

 E|-----|
 B|--7--|
 G|-----|
 D|-----|
 A|-----|
 E|-----|

   Intro:

 E|----------------------------------------------------------------|
 B|----------------------------------------------------------------|
 G|----------------------------------------------------------------|
 D|----------------------------------------------------------------|
 A|--5--5--5-7-5-4------------------2--4--5-5--4-------------------|
 E|----------------5-2--2--2-2-0-2-5---------------5--2-2-4-4-5-5--|

   Verse: Use Palm Muting

 E|-----| |-----| |-----| |-----|
 B|-----| |-----| |-----| |-----|
 G|-----| |-----| |-----| |-----|
 D|-----| |-----| |-----| |-----|
 A|--5--| |-----| |--2--| |-----|
 E|-----| |--2--| |-----| |--2--|
    16x     16x     16x     16x
 

  Riff:
              
 E|-------------------------------------------|
 B|-------------------------------------------|
 G|--7--7---7-7-7---6-------------------------|
 D|--7--7---7-7-7---6--7--4--4---4-4--2--4--6-|
 A|--5--5---5-5-5---4--7--4--4---4-4--2--4--6-|
 E|--------------------5--2--2---2-2--0--2--4-|

[ Tab from: http://www.guitartabs.cc/tabs/t/the_rasmus/in_the_shadows_tab_ver_4.html ]
 E|-------------------------------------------|
 B|-------------------------------------------|
 G|--4--6---7-7-7---6-------------------------|
 D|--4--6---7-7-7---6--7--4--6--5--4--6--4----|
 A|--2--4---5-5-5---4--7--4--6--5--4--6--4----|
 E|--------------------5--2--4--7--2--4--2----|

 E|-------------------------------------------|
 B|-------------------------------------------|
 G|--7--7---7-7-7---6-------------------------|
 D|--7--7---7-7-7---6--7--4--4---4-4--2--4--6-|
 A|--5--5---5-5-5---4--7--4--4---4-4--2--4--6-|
 E|--------------------5--2--2---2-2--0--2--4-|

 E|-------------------------------------------|
 B|-------------------------------------------|
 G|--4--6---7-7-7---6-------------------------|
 D|--4--6---7-7-7---6--7--4--4--4-4-4---------|
 A|--2--4---5-5-5---4--7--4--4--4-4-4---------|
 E|--------------------5--2--2--2-2-2---------|

 Pre Chorus:

 E|-----------|
 B|-----------|
 G|-----------|
 D|--7--6--4--|
 A|--7--6--4--|
 E|--5--4--2--|

   Chorus:
                                         
 E|----------------------|
 B|----------------------|
 G|--7-----------4-------|
 D|--7-----4-----4----4--|
 A|--5-----4-----2----4--|
 E|--------2----------2--|

 After first chorus the riff comes again. but it will end with:

 E|---------------|
 B|---------------|
 G|---------------|
 D|--4-4--6-6--7--|
 A|--4-4--6-6--7--|
 E|--2-2--4-4--5--|

 Last Chord:

 E|-----|
 B|-----|
 G|--7--|
 D|--7--|
 A|--5--|
 E|-----|

If i made any mistake, please email me at  Metall_llatem@hotmail.com
Comments