The Rasmus - In The Shadows Chords & Tabs

 

In The Shadows Chords & Tabs

The Rasmus Chords & Tabs

Version: 3 Type: Tab 0 ratings
1 star 2 stars 3 stars 4 stars 5 stars
comments

In The Shadows Tab

#----------------------------------PLEASE NOTE--------------------------------#
#This file is the author's own work and represents their interpretation of the#
#song. You may only use this file for private study, scholarship, or research.#
#-----------------------------------------------------------------------------#
#-- File created with Instab - http://www.pconline.com/~smcarey/instab.html --#
#-----------------------------------------------------------------------------#

Author/Artist: The Rasmus
Title: In The Shadows
Tuning: Standard (EBGDAE)
Effects: Heavy disortion (use for: Bridge, Fill 1, both Chorus parts)
Transcribed by: Jacek Galuszczynski
Email: aczo@wp.pl

Hi! This is my first tab (not including a few melodies like the wedding
march etc;)). I think this song's ok and that's why I decided to
transcribe it. My version sounds about right to me, but I still think
it could be done better. It's about 85% correct, and complete. Ok for me.
The whole song has few single sounds more. Do anything You want with it
and if You find any better way to play this song, please mail me.

HOPE U ENJOY IT!


 The intro
------------------------------------------------------------------------------
------------------------------------------------------------------------------
------------------------------------------------------------------------------
------------------------------------------------------------------------------
-5--5--5--7--5----------------------------4----5--5--5--7--5------------------
----------------7--5----3--3--5--3--5--7----------------------7--5----33-55-7-


 Bridge
-------------------------------------------------------------------
-------------------------------------------------------------------
-7--7--7--9--7--4--2-----------------------------------------------
-7--7--7--9--7--4--2---------5--5--7--5--7--9--11------------------
-5--5--5--7--5--2--0---------5--5--7--5--7--9--11------------------
-----------------------------3--3--5--3--5--7---9------------------

[ Tab from: http://www.guitartabs.cc/tabs/t/the_rasmus/in_the_shadows_tab_ver_3.html ]
----------------------------------------------|--------------------
----------------------------------------------|--------------------
-7--9--7--5--7--5--3--------------------------|--------------------
-7--9--7--5--7--5--3---------5-7-9-5-7-9-5----|-------5-5-7-5-7-5--
-5--7--5--3--5--3--1---------5-7-9-5-7-9-5----|-------5-5-7-5-7-5--
-----------------------------3-5-7-3-5-7-3----|-------3-3-5-3-5-3--
                            /  1st  time  \          / 2nd  time \


 Verse     (repeat)
------------------------
-x-x----x------x-x----x-
-x-x----x------x-x----x-
-x-x----x------x-x----x-
-x-x----x------x-x----x-
------------------------


 Fill 1
-------
-------
-------
-9-7-5-
-9-7-5-
-7-5-3-


 The chorus - 1st part (repeat twice)
------------------------------------------------------------------------------
------------------------------------------------------------------------------
-----8--10---------6--8--------7--9--------5--7-------------------------------
-9-------------7-----------8-----------6--------------------------------------
-9-------------7-----------8-----------6--------------------------------------
-7-------------5-----------6-----------4--------------------------------------


 The chorus - 2nd part (repeat twice, at the 2nd time use alter. ending)
------------------------------------------------------------------------------
------------------------------------------------------------------------------
-7--7--7--9--7--4--2----------------------------------------------------------
-7--7--7--9--7--4--2---------5--5--7--5--7--9--11-----------------------------
-5--5--5--7--5--2--0---------5--5--7--5--7--9--11-----------------------------
-----------------------------3--3--5--3--5--7---9-----------------------------


----------------------------------------------------|-------------------------
----------------------------------------------------|-------------------------
-7--9--7--5--7--5--3--------------------------------|-------------------------
-7--9--7--5--7--5--3---------5--7--9--5--7--5--3----|--5-5--7-7--9------------
-5--7--5--3--5--3--1---------5--7--9--5--7--5--3----|--5-5--7-7--9------------
-----------------------------3--5--7--3--5--3--1----|--3-3--5-5--7------------
                            /  1st  time        \     / 2nd time  \


 Final chorus - only chorus pt. 1, then this
------------------------------------------------------------------------------
-4---6---6---8---8---10---10---12---12---14---14---16---16---18---20----------
------------------------------------------------------------------------------
------------------------------------------------------------------------------
------------------------------------------------------------------------------
------------------------------------------------------------------------------


 Finish with Bridge
Comments