The Rasmus - In The Shadows Chords & Tabs

 

In The Shadows Chords & Tabs

The Rasmus Chords & Tabs

Version: 2 Type: Tab 0 ratings
1 star 2 stars 3 stars 4 stars 5 stars
comments

In The Shadows Tab

Song: In The Shadows
Band: The Rasmus
Album: Dead Letters
Tuning: Standard (EADGBe)
Tabbed by Andrew

These guys are an awesome band, check them out!  They have one guitarist, but 
there are several guitar parts in this song and they're all tabbed here.  I 
hate saying 'this is 99% right', coz I don't know if it is or not, but I spent 
a while tabbing this, although it is my first tab.  I've looked at their video 
clip for this, and it looks like they play it this way.  I've put two guitars 
in, with the 2nd guitar alternating between doing what could be synth, and some 
distorted guitar bits.  1st guitar is usually on top, 2nd just below.  Listen to 
the song, and figure it out!  
Please rate this tab, and be fair.  :)  Rock on!

* = palm mute with slight left hand mute.
\= slide down
[#]= Optional note
~ = tremelo picking
(#) = Harmonic on that fret eg. (7) would be 7th fret harmonic.

Intro - Clean 1st Guitar, 2nd Guitar with some effect or maybe synth.

     Starts with..   (2nd Guitar)
||---------------------------|
||-7---7---7---7---7--etc..--|
||---------------------------|
||---------------------------|
||---------------------------|
||---------------------------|
                                                                                                       
Then 1st Guitar joins with..
          
||-------------------|-------------------|-------------------|-------------||
||-------------------|-------------------|-------------------|-------------||
||-------------------|-------------------|-------------------|-------------||
||-------------------|-------------------|-------------------|-------------||
||-5---5---5-7-5-4---|-------------------|-2---4---5-5-5-4---|-------------||
||-----------------5-|-2---2---2-2-0-2-5-|-----------------5-|-2-2-4-4-5-5-||
                                                                                
====================================================================================


Main Riff - Distortion (1st guitar)
                                                                                                    
||-------------------|---------------------|-------------------|---------------|
||-------------------|---------------------|-------------------|---------------|
||-7---7---7-7-7-6---|---------------------|-4---6---7-7-7-6---|-----------6---|
||-7---7---7-7-7-6-7-|---4---4---4-4-2-4-7-|-4---6---7-7-7-6-7-|-4-6-7-7-7-6-7-|
||-5---5---5-5-5-4-7-|---4---4---4-4-2-4-7-|-2---4---5-5-5-4-7-|-4-6-7-7-7-4-7-|
||-----------------5-|---2---2---2-2-0-2-5-|-----------------5-|-2-4-5-5-5---5-|
                                                                                                    

                                                                                                    
|--------------------|---------------------|---------------------|---------------||
|--------------------|---------------------|---------------------|---------------||
|--7---7---7-7-7-6---|---------------------|---4---6---7-7-7-6---|---------------||
|--7---7---7-7-7-6-7-|---4---4---4-4-2-4-7-|---4---6---7-7-7-6-7-|-4-4---4-4-4-4-||
|--5---5---5-5-5-4-7-|---4---4---4-4-2-4-7-|---2---4---5-5-5-4-7-|-4-4---4-4-4-4-||
|------------------5-|---2---2---2-2-0-2-5-|-------------------5-|-2-2---2-2-2-2-||

                                                                                                    
===================================================================================


-Verse-  "No sleep, no sleep until I'm done with finding the answer.."
 
1st Guitar Plays this:
                                                                                                   
||-------------------|-----------------||
||-------------------|-----------------||
||-7-----------------|-----------------|| (X7)
||-7----x16----------|-4----x16--------||
||-5-----------------|-4---------------||
||[5]----------------|-2---------------||
   *                   *                                                                                
(light palm mute with light left hand muting)

And Finishes on..
                                                                                                    
||-------------------|---------------------||
||-------------------|---------------------||
||-7-----------------|---------------------||
||-7---x16-----------|-4--3--2-------------||
||-5-----------------|-4--3--2-------------||
||[5]----------------|-2--1--0-------------||
   *                                                                                                 


2nd Guitar plays..

||----------------|------------|------5---4-----|-------|------------|
||------9---7-----|------------|----------------|-------|------7-7-7-|
||--------------6-|------------|--------------6-|-------|------------|
||----------------|3-bars-rest-|----------------|-2-bars|------------|
||----------------|------------|----------------|-------|------------|
||----------------|------------|----------------|-------|------------|

|-------------|----------|------------||
|-------------|----------|------------||
|-------------|----------|------------||
|-------------|-4---6----|------------||
|-3-bars-rest-|----------|4-bars-rest-|| 
|-------------|----------|------------||   

                                                                                                 
=================================================================================



Chorus - Distortion, both guitars  "I've been watching, I've been waiting.."
                                                                                                    
||-----------------|-----------------|-----------------|-----------------|
||-----------------|-----------------|-----------------|-----------------|
||-7-7-7-7-7-7-7-7-|-----------------|-4-4-4-4-4-4-4-4-|-----------------|
||-7-7-7-7-7-7-7-7-|-4-4-4-4-4-4-4-4-|-4-4-4-4-4-4-4-4-|-4-4-4-4-4-4-4-4-|
||-5-5-5-5-5-5-5-5-|-4-4-4-4-4-4-4-4-|-2-2-2-2-2-2-2-2-|-4-4-4-4-4-4-4-4-|
||-----------------|-2-2-2-2-2-2-2-2-|-----------------|-2-2-2-2-2-2-2-2-|
||                                                                       |                         
||                                                                       |
||                                                                       |                            
||-----------------|-----------------|-----------------|-----------------|
||---------5---7---|-----------------|-----------------|-----------------|
||-----------------|---------4---6---|----------6---7--|-----------------|
||-----------------|-----------------|-----------------|----------6---7--|
||-----------------|-----------------|-----------------|-----------------|
||-----------------|-----------------|-----------------|-----------------|
                                                                                                    

                                                                                                   
||-----------------|-----------------|-----------------|----------------||
||-----------------|-----------------|-----------------|----------------||
||-7-7-7-7-7-7-7-7-|-----------------|-4-4-4-4-4-4-4-4-|----------------||
||-7-7-7-7-7-7-7-7-|-4-4-4-4-4-4-4-4-|-4-4-4-4-4-4-4-4-|-4-4-4-4-3-3\--||
||-5-5-5-5-5-5-5-5-|-4-4-4-4-4-4-4-4-|-2-2-2-2-2-2-2-2-|-4-4-4-4-3-3\--||
||-----------------|-2-2-2-2-2-2-2-2-|-----------------|-2-2-2-2-1-1\--||
||                                                                      ||                         
||                                                                      ||
||                                                                      ||                            
||-----------------|-----------------|-----------------|----------------||
||---------5---7---|-----------------|-----------------|----------------||
||-----------------|---------4---6---|----------6---7--|----------------||
||-----------------|-----------------|-----------------|----------------||
||-----------------|-----------------|-----------------|----------------||
||-----------------|-----------------|-----------------|----------------||


===================================================================================

Main Riff - Distorted 1st Guitar  "In the shadows.."

                                                                                                    
||-------------------|---------------------|-------------------|------------------|
||-------------------|---------------------|-------------------|------------------|
||-7---7---7-7-7-6---|---------------------|-4---6---7-7-7-6---|--------------6---|
||-7---7---7-7-7-6-7-|---4---4---4-4-2-4-7-|-4---6---7-7-7-6-7-|-4--6--7-7-7--6-7-|
||-5---5---5-5-5-4-7-|---4---4---4-4-2-4-7-|-2---4---5-5-5-4-7-|-4--6--7-7-7--4-7-|
||-----------------5-|---2---2---2-2-0-2-5-|-----------------5-|-2--4--5-5-5----5-|
                                                                                                    

                                                                                                    
|--------------------|--------------------|--------------------|------------------||
|--------------------|--------------------|--------------------|------------------||
|--7---7---7-7-7-6---|--------------------|--4---6---7-7-7-6---|------------------||
|--7---7---7-7-7-6-7-|--4---4---4-4-2-4-7-|--4---6---7-7-7-6-7-|-4--4--6--6--7-(7)||
|--5---5---5-5-5-4-7-|--4---4---4-4-2-4-7-|--2---4---5-5-5-4-7-|-4--4--6--6--7--7-||
|------------------5-|--2---2---2-2-0-2-5-|------------------5-|-2--2--4--4--5--5-||


====================================================================================
                                                                                                    

-2nd Verse-  "They say, that I must learn to kill before I can feel safe.."
 
First Guitar Plays..
                                                                                                   
||-----------------|-----------------||
||-----------------|-----------------||
||-----------------|-----------------||
||--(bass only)----|-4---------------||
||-----------------|-4---x16---------||
||-----------------|-2---------------||
                     *                                                                             
    

                                                                                                    
||-------------------|-----------------||
||-------------------|-----------------||
||-7-----------------|-----------------|| (X6)
||-7----x16----------|-4----x16--------||
||-5-----------------|-4---------------||
||[5]----------------|-2---------------||
   *                   *                    
                                                            
(* = light palm mute with light left hand muting)


And Finishes on..
                                                                                                    
||-------------------|---------------------||
||-------------------|---------------------||
||-7-----------------|---------------------||
||-7---x16-----------|-4--3--2-------------||
||-5-----------------|-4--3--2-------------||
||[5]----------------|-2--1--0-------------||
   *                                         

2nd Guitar plays..

                                                                                                    
[ Tab from: http://www.guitartabs.cc/tabs/t/the_rasmus/in_the_shadows_tab_ver_2.html ]
                                                                                                    
||---------|---------0-----------|---------------|-------------|-------------|
||---------|-------------0---2---|---------------|-5---7-------|-------------|
||---------|---------------------|---------------|-------------|-4---6-------|
||4bar-rest|---------------------|--3-bars-rest--|-------------|-------------|
||---------|---------------------|---------------|-------------|-------------|
||---------|---------------------|---------------|-------------|-------------|
                                                                                  
                                                                                                    
|-------------|-------------|-----------|-----------|-----------|-------------||
|-------------|-------------|-5---7-----|-----------|-----------|-------------||
|-6---7-------|-------------|-----------|-4---6-----|-6---7-----|-------------||
|-------------|-6---7-------|-----------|-----------|-----------|--1-bar-rest-||
|-------------|-------------|-----------|-----------|-----------|-------------||
|-------------|-------------|-----------|-----------|-----------|-------------||
                                                                                                    



=====================================================================================


Chorus - Distortion, both guitars  "I've been watching, I've been waiting.."
                                                                                                    
||-----------------|-----------------|-----------------|-----------------|
||-----------------|-----------------|-----------------|-----------------|
||-7-7-7-7-7-7-7-7-|-----------------|-4-4-4-4-4-4-4-4-|-----------------|
||-7-7-7-7-7-7-7-7-|-4-4-4-4-4-4-4-4-|-4-4-4-4-4-4-4-4-|-4-4-4-4-4-4-4-4-|
||-5-5-5-5-5-5-5-5-|-4-4-4-4-4-4-4-4-|-2-2-2-2-2-2-2-2-|-4-4-4-4-4-4-4-4-|
||-----------------|-2-2-2-2-2-2-2-2-|-----------------|-2-2-2-2-2-2-2-2-|
||                                                                       |                         
||                                                                       |
||                                                                       |                            
||-----------------|-----------------|-----------------|-----------------|
||---------5---7---|-----------------|-----------------|-----------------|
||-----------------|---------4---6---|----------6---7--|-----------------|
||-----------------|-----------------|-----------------|----------6---7--|
||-----------------|-----------------|-----------------|-----------------|
||-----------------|-----------------|-----------------|-----------------|
                                                                                                    

                                                                                                   
||-----------------|-----------------|-----------------|----------------||
||-----------------|-----------------|-----------------|----------------||
||-7-7-7-7-7-7-7-7-|-----------------|-4-4-4-4-4-4-4-4-|----------------||
||-7-7-7-7-7-7-7-7-|-4-4-4-4-4-4-4-4-|-4-4-4-4-4-4-4-4-|-4-4-4-4-3-3\--||
||-5-5-5-5-5-5-5-5-|-4-4-4-4-4-4-4-4-|-2-2-2-2-2-2-2-2-|-4-4-4-4-3-3\--||
||-----------------|-2-2-2-2-2-2-2-2-|-----------------|-2-2-2-2-1-1\--||
||                                                                      ||                         
||                                                                      ||
||                                                                      ||                            
||-----------------|-----------------|-----------------|----------------||
||---------5---7---|-----------------|-----------------|----------------||
||-----------------|---------4---6---|----------6---7--|----------------||
||-----------------|-----------------|-----------------|----------------||
||-----------------|-----------------|-----------------|----------------||
||-----------------|-----------------|-----------------|----------------||


====================================================================================


Bridge - 1st guitar.  There is a synth bit, but I didn't tab it - hard to hear properly.
"Lately, I've been walking, walking in circles.."   
                                                                                                 
||-------------------|-----------------||
||-------------------|-----------------||
||-7-----------------|-----------------|| (X2)
||-7----x16----------|-4----x16--------||
||-5-----------------|-4---------------||
||[5]----------------|-2---------------||
   *                   *                                                                                
(light palm mute with light left hand muting)


Finishes with..
                                                                                                    
||---------------------||
||---------------------||
||---------------------||
||-4--3--2-------------||
||-4--3--2-------------||
||-2--1--0-------------||
                             

===================================================================================

                                                                      

Chorus - Distortion, both guitars "I've been watching, I've been waiting..."

                                                                                                    
||-----------------|-----------------|-----------------|-----------------|
||-----------------|-----------------|-----------------|-----------------|
||-7-7-7-7-7-7-7-7-|-----------------|-4-4-4-4-4-4-4-4-|-----------------|
||-7-7-7-7-7-7-7-7-|-4-4-4-4-4-4-4-4-|-4-4-4-4-4-4-4-4-|-4-4-4-4-4-4-4-4-|
||-5-5-5-5-5-5-5-5-|-4-4-4-4-4-4-4-4-|-2-2-2-2-2-2-2-2-|-4-4-4-4-4-4-4-4-|
||-----------------|-2-2-2-2-2-2-2-2-|-----------------|-2-2-2-2-2-2-2-2-|
||                                                                       |                         
||                                                                       |
||                                                                       |                            
||-----------------|-----------------|-----------------|-----------------|
||---------5---7---|-----------------|-----------------|-----------------|
||-----------------|---------4---6---|----------6---7--|-----------------|
||-----------------|-----------------|-----------------|----------6---7--|
||-----------------|-----------------|-----------------|-----------------|
||-----------------|-----------------|-----------------|-----------------|
                                                                             
                                                                                    
                                                                                                    
||-----------------|-----------------|-----------------|-----------------||
||-----------------|-----------------|-----------------|-----------------||
||-7-7-7-7-7-7-7-7-|-----------------|-4-4-4-4-4-4-4-4-|-------------6-6-||
||-7-7-7-7-7-7-7-7-|-4-4-4-4-4-4-4-4-|-4-4-4-4-4-4-4-4-|-4-4-6-6-7-7-6-6-||
||-5-5-5-5-5-5-5-5-|-4-4-4-4-4-4-4-4-|-2-2-2-2-2-2-2-2-|-4-4-6-6-7-7-4-4-||
||-----------------|-2-2-2-2-2-2-2-2-|-----------------|-2-2-4-4-5-5-----||
||                                                                       ||                         
||                                                                       ||
||                                                                       ||                            
||-----------------|-----------------|-----------------|-----------------||
||---------5---7---|-----------------|-----------------|-----------------||
||-----------------|---------4---6---|----------6---7--|-----------------||
||-----------------|-----------------|-----------------|-----------------||
||-----------------|-----------------|-----------------|-----------------||
||-----------------|-----------------|-----------------|-----------------||


====================================================================================
                                                                                                    

Chorus bit with solo - Distortion, both guitars.  Some tremelo picking during the solo.
"I've been watching.."
                                                                                                   
||-----------------|-----------------|-----------------|-----------------|
||-----------------|-----------------|-----------------|-----------------|
||-7-7-7-7-7-7-7-7-|-----------------|-4-4-4-4-4-4-4-4-|-----------------|
||-7-7-7-7-7-7-7-7-|-4-4-4-4-4-4-4-4-|-4-4-4-4-4-4-4-4-|-4-4-4-4-4-4-4-4-|
||-5-5-5-5-5-5-5-5-|-4-4-4-4-4-4-4-4-|-2-2-2-2-2-2-2-2-|-4-4-4-4-4-4-4-4-|
||-----------------|-2-2-2-2-2-2-2-2-|-----------------|-2-2-2-2-2-2-2-2-|
||                                                                       |                         
||                                                                       |
||                                                                       |                            
||-----------------|-----------------|-----------------|-----------------|
||-----------------|--9------10------|-10-----12~------|-12~-----14------|
||--9-------11-----|-----------------|-----------------|-----------------|
||-----------------|-----------------|-----------------|-----------------|
||-----------------|-----------------|-----------------|-----------------|
||-----------------|-----------------|-----------------|-----------------|
                                                                                                    

||-----------------|-----------------|-----------------|----------------||
||-----------------|-----------------|-----------------|----------------||
||-7-7-7-7-7-7-7-7-|-----------------|-4-4-4-4-4-4-4-4-|----------------||
||-7-7-7-7-7-7-7-7-|-4-4-4-4-4-4-4-4-|-4-4-4-4-4-4-4-4-|-4-4-4-4-3-3\--||
||-5-5-5-5-5-5-5-5-|-4-4-4-4-4-4-4-4-|-2-2-2-2-2-2-2-2-|-4-4-4-4-3-3\--||
||-----------------|-2-2-2-2-2-2-2-2-|-----------------|-2-2-2-2-1-1\--||
||                                                                      ||                         
||                                                                      ||
||                                                                      ||                            
||-----------------|-----------------|-----------------|----------------||
||--14~----15~-----|--17~-----19~----|-19~-----21~-----|--21~---22------||
||-----------------|-----------------|-----------------|----------------||
||-----------------|-----------------|-----------------|----------------||
||-----------------|-----------------|-----------------|----------------||
||-----------------|-----------------|-----------------|----------------||

                                                                                
======================================================================================



Main Riff again - Distorted first guitar  "In the shadows.."
                                                                                                    
||-------------------|---------------------|-------------------|---------------|
||-------------------|---------------------|-------------------|---------------|
||-7---7---7-7-7-6---|---------------------|-4---6---7-7-7-6---|-----------6---|
||-7---7---7-7-7-6-7-|---4---4---4-4-2-4-7-|-4---6---7-7-7-6-7-|-4-6-7-7-7-6-7-|
||-5---5---5-5-5-4-7-|---4---4---4-4-2-4-7-|-2---4---5-5-5-4-7-|-4-6-7-7-7-4-7-|
||-----------------5-|---2---2---2-2-0-2-5-|-----------------5-|-2-4-5-5-5---5-|
                                                                                                    

                                                                                                    
-------------------|-----------------|-------------------|----------------|------||
-------------------|-----------------|-------------------|----------------|------||
--7--7---7-7-7-6---|-----------------|-4---6---7-7-7-6---|----------------|-7----||
--7--7---7-7-7-6-7-|-4--4--4-4-2-4-7-|-4---6---7-7-7-6-7-|-4-4--4-4-2-4/7-|-7----||
--5--5---5-5-5-4-7-|-4--4--4-4-2-4-7-|-2---4---5-5-5-4-7-|-4-4--4-4-2-4/7-|-5----||
-----------------5-|-2--2--2-2-0-2-5-|-----------------5-|-2-2--2-2-0-2/5-|------||



Any comments, corrections or otherwise, mail me at xenolith42@hotmail.com  Enjoy!

P.S. If anyone knows these guys personally, can you tell them to come to Australia and play some gigs,
or at least get some of their cds out here.  At the moment I have to order them from America..  Thanks!
                                                                                                    
Comments