The Rasmus - In The Shadow Chords & Tabs

 

In The Shadow Chords & Tabs

The Rasmus Chords & Tabs

Version: 2 Type: Tab 7 ratings
1 star 2 stars 3 stars 4 stars 5 stars
comments

In The Shadow Tab

THE RASMUS – IN THE SHADOWS

Standard Tuning

**PM** - Palm muted
s - slide    

Intro
E|----------------------------------------------------------------
B|----------------------------------------------------------------
G|----------------------------------------------------------------
D|----------------------------------------------------------------
A|--5—-5-—5-—0-5-4-0-------------------4—-5—0-5-4-0—--------------
E|--------------------2—2—2—0-2-4-5-7---------------2-2-4-4-5-----
Played quietly with a clean sound


E|----------------------------------------------------------------
B|----------------------------------------------------------------
G|----------------------------------------------------------------
D|----------------------------------------------------------------
A|--5—-5-—5-—0-5-4-0-------------------4—-5—0-5-4-0—----------4-0-
E|--------------------2—2—2—0-2-4-5-7---------------2-4-5-0-5-----
With distortion


E|----------------------------------------------------------------
B|----------------------------------------------------------------
G|----------------------------------------------------------------
D|----------------------------------------------------------------
A|--5—-5-—5-—0-5-4-0-------------------4—-5—0-5-4-0—--------------
E|--------------------2—2—2—0-2-4-5-7---------------2-2-222-2-----
With distortion

Verse 1
E|----------------------------------------------------------------
B|----------------------------------------------------------------
G|--7777777777777777---------------------------------------------- X7
D|--7777777777777777--4444444444444444----------------------------
A|--5555555555555555--4444444444444444----------------------------
E|--------------------2222222222222222----------------------------
    *******PM*******  *******PM*******


E|----------------------------------------------------------------
B|----------------------------------------------------------------
G|--7777777777777777----------------------------------------------
D|--7777777777777777--4-3-2---------------------------------------
A|--5555555555555555--4-3-2---------------------------------------
E|--------------------2-1-0---------------------------------------
    *******PM*******

Chorus 1
E|----------------------------------------------------------------
B|----------------------------------------------------------------
G|--7-7-7-7-7-7-7-7----------------------------------------------- X4
D|--7-7-7-7-7-7-7-7--4-4-4-4-4-4-4-4------------------------------
A|--5-5-5-5-5-5-5-5--4-4-4-4-4-4-4-4------------------------------
E|-------------------2-2-2-2-2-2-2-2------------------------------
With distortion


E|----------------------------------------------------------------
B|----------------------------------------------------------------
G|----------------------------------------------------------------
D|----------------------------------------------------------------
A|--5—-5-—5-—0-5-4-0-------------------4—-5—0-5-4-0—----------4-0-
E|--------------------2—2—2—0-2-4-5-7---------------2-4-5-0-5-----


E|----------------------------------------------------------------
B|----------------------------------------------------------------
G|----------------------------------------------------------------
D|----------------------------------------------------------------
A|--5—-5-—5-—0-5-4-0-------------------4—-5—0-5-4-0—--------------
E|--------------------2—2—2—0-2-4-5-7---------------2-2-4-4-5/----
          
                                                   s
G|-----------
D|----------- ONLY BASS
A|--5—5-5-5--
E|-----------
  They say…
[ Tab from: http://www.guitartabs.cc/tabs/t/the_rasmus/in_the_shadow_tab_ver_2.html ]
Verse 2
E|--------------------
B|--------------------
G|--------------------
D|--4444444444444444--
A|--4444444444444444--
E|--2222222222222222—
    *******PM*******


E|----------------------------------------------------------------
B|----------------------------------------------------------------
G|--7777777777777777---------------------------------------------- X6
D|--7777777777777777--4444444444444444----------------------------
A|--5555555555555555--4444444444444444----------------------------
E|--------------------2222222222222222----------------------------
    ******PM*******   *******PM*******


E|----------------------------------------------------------------
B|----------------------------------------------------------------
G|--7777777777777777----------------------------------------------
D|--7777777777777777--4-3-2---------------------------------------
A|--5555555555555555--4-3-2---------------------------------------
E|--------------------2-1-0---------------------------------------
    ******PM********

Chorus 2
E|----------------------------------------------------------------
B|----------------------------------------------------------------
G|--7-7-7-7-7-7-7-7----------------------------------------------- X4
D|--7-7-7-7-7-7-7-7--4-4-4-4-4-4-4-4------------------------------
A|--5-5-5-5-5-5-5-5--4-4-4-4-4-4-4-4------------------------------
E|-------------------2-2-2-2-2-2-2-2------------------------------
With distortion

Verse 3
E|----------------------------------------------------------------------
B|----------------------------------------------------------------------
G|--77777777777777777777777777777777------------------------------------
D|--77777777777777777777777777777777—-44444444444444444444444444444444--
A|--55555555555555555555555555555555—-44444444444444444444444444444444--
E|------------------------------------22222222222222222222222222222222--
    *************PM*****************  ***************PM***************


E|----------------------------------------------------------------
B|----------------------------------------------------------------
G|----77777777777777777777777777777777----------------------------
D|----77777777777777777777777777777777—-4444444444444444--4-3-2---
A|----55555555555555555555555555555555—-4444444444444444--4-3-2---
E|--------------------------------------2222222222222222--2-1-0---
      **************PM****************  *******PM*******

Chorus 3
E|----------------------------------------------------------------
B|----------------------------------------------------------------
G|--7-7-7-7-7-7-7-7----------------------------------------------- X8
D|--7-7-7-7-7-7-7-7--4-4-4-4-4-4-4-4------------------------------
A|--5-5-5-5-5-5-5-5--4-4-4-4-4-4-4-4------------------------------
E|-------------------2-2-2-2-2-2-2-2------------------------------
With distortion


E|----------------------------------------------------------------
B|----------------------------------------------------------------
G|----------------------------------------------------------------
D|----------------------------------------------------------------
A|--5—-5-—5-—0-5-4-0-------------------4—-5—0-5-4-0—----------4-0-
E|--------------------2—2—2—0-2-4-5-7---------------2-4-5-0-5-----
With distortion


E|----------------------------------------------------------------
B|----------------------------------------------------------------
G|----------------------------------------------------------------
D|----------------------------------------------------------------
A|--5—-5-—5-—0-5-4-0-------------------4—-5—0-5-4-0—--------------
E|--------------------2—2—2—0-2-4-5-7---------------2-2-222-2-2---
With distortion


E|-----
B|-----
G|--7—-
D|--7—-
A|--5—-
E|-----
With distortion

Made by the star from Dragør
Comments