The Rasmus - In The Shadow Chords & Tabs

 

In The Shadow Chords & Tabs

The Rasmus Chords & Tabs

Version: 1 Type: Tab 3 ratings
1 star 2 stars 3 stars 4 stars 5 stars
comments

In The Shadow Tab

		

			 THE RASMUS - IN THE SHADOWS
			
		       (from the album "DEAD LETTERS")


Tabbed by Laura Pronestì


Intro:


e------------------------------------------------------------------|
B------------------------------------------------------------------|
G------------------------------------------------------------------|
D------------------------------------------------------------------|
A--5-5-5-7-5-4-----------------2-4-5-(5-7)-4-----------------------|
E--------------5-2-2-2-0-0-2-5---------------5-2-2-4-4-5-----------|

Riff 1:
[ Tab from: http://www.guitartabs.cc/tabs/t/the_rasmus/in_the_shadow_tab.html ]
e-------------------------------------------------|
B-------------------------------------------------|
G-------------------------------------------------|
D--7-7-7-6-----------------4-6-7-6----------------|
A--5-5-5-4-7-4-4-4-2-2-4-7-2-4-5-4-7-4-6-7--------|
E----------5-2-2-2-0-0-2-5---------5-2-4-5-5-7-5--|

e-------------------------------------------------|
B-------------------------------------------------|
G-------------------------------------------------|
D--7-7-7-6-----------------4-6-7-6----------------|
A--5-5-5-4-7-4-4-4-2-2-4-7-2-4-5-4-7-4-4-4-4-4-4--|
E----------5-2-2-2-0-0-2-5---------5-2-2-2-2-2-2--|


Pre chorus:

e----------|
B----------|
G----------|
D----------|
A--7-6-4---|
E--5-4-2---|

Chorus:

e---------|
B---------|
G---------|
D-7-------|  (4 times)
A-5-7-4---|  		A----5-7----| ----> guitar 2
E---5-2---|

Riff 1: 
Pre Chorus;
Chorus:


This is a great song, not very difficult. Enjoy!
For suggestions&corrections send me e-mails:

Pollon88@hotmail.com

Comments