The Rakes - Terror Chords & Tabs

 

Terror Chords & Tabs

The Rakes Chords & Tabs

Version: 1 Type: Tab

Terror Tab

Rakes - Terror - Capture/Release
Guitar and Bass
Standard Tuning
BASIC AS ANYTHING!!!! by max thornton! RAKES RULE! GO TO A GIG!

Guitar
e----7-------------7----------------------|
b------8---------8----------7-------------|
g--------9-----9----------8---------------|
d-----------------------9-----------------|
a-----------------------------------------|
E-----------------------------------------|
[ Tab from: http://www.guitartabs.cc/tabs/t/the_rakes/terror_tab.html ]
e----7-------------7----------------------|
b------8---------8----------7-------------|
g--------9-----9----------8---------------|
d-----------------------9-----------------|
a-----------------------------------------|
E-----------------------------------------|

Bass

g--------------------------------------------------|
d--------------------------------------------------|
a--------------------------------------------------|
E---12-12-12-12-12-12-12-12----8-8-8-8-7-7-7-7-----|


g--------------------------------------------------|
d--------------------------------------------------|
a--------------------------------------------------|
E---12-12-12-12-12-12-12-12----8-8-8-8-7-7-7-7-----|