The Rakes - Strasbourg Chords & Tabs

 

Strasbourg Chords & Tabs

The Rakes Chords & Tabs

Version: 4 Type: Tab

Strasbourg Tab

   
Strasbourg - The Rakes

Intro/verses:
[ Tab from: http://www.guitartabs.cc/tabs/t/the_rakes/strasbourg_tab_ver_4.html ]
e ----------------------------------|
G -44444444444444445555555555555555-|
B -55555555555555555555555555555555-|
D ----------------------------------|
A ----------------------------------|
E ----------------------------------|


Chorus:

e ------------------------|
G ------------------------|
B -2-2---------5-5-5------|
D -0-0---------3-3-3------|
A -------3-3----------3-3-|
E -------1-1----------1-1-|

Tabbed by: Garrett Van Dyk (Serge654@hotmail.com)