The Rakes - Guilt Chords & Tabs

 

Guilt Chords & Tabs

The Rakes Chords & Tabs

Version: 1 Type: Tab 0 ratings
1 star 2 stars 3 stars 4 stars 5 stars
comments

Guilt Tab

Guitar #1
e-7--------7-------7--------7--------------|
b--8-5--5-8------5--8-5--5-8------5--------|
g------------7-7--------------7-7----------|
d------------------------------------------|
a------------------------------------------|
e------------------------------------------|

Bass
e------------------------|
b------------------------|
g------------------------|
d------------------------|
a-777777777-----------(0)|
e----------888877777--(5)|

Tabbed by your loyal friend,
GypsyKiss
[ Tab from: http://www.guitartabs.cc/tabs/t/the_rakes/guilt_tab.html ]
Comments