The Rakes - 22 Grand Job Chords & Tabs

 

22 Grand Job Chords & Tabs

The Rakes Chords & Tabs

Version: 1 Type: Tab

22 Grand Job Tab

new single from the lads

intro is just E bashed out on bass. play that on guitar either open or as a power chord on the 12 frett

the guitar main riff that everybody loves
[ Tab from: http://www.guitartabs.cc/tabs/t/the_rakes/22_grand_job_tab.html ]
e------------------------------------|
b------------------------------------|
g------------------------------------|
d--------9-11-9----------------------|
a-7-9-11--------11-9-----------------|
E--------------------12-9-12-9-7-9---|


the bass line for the chorus is
g--------------------------|
d--------------------------|
a--------------------------|
E-12-12-12-7-7-7-9-9-9-9---|

then the whole song just goes up a semi-tone so just play the same thing a note 
the main riff would start on the a string 8th frett


cheers

tabbed by stu

www.myspace.com/stu_f
rakes/cribs/boysintheband forums