The Rakes - 22 Grand Job Chords & Tabs

 

22 Grand Job Chords & Tabs

The Rakes Chords & Tabs

Version: 1 Type: Bass Tab 0 ratings
1 star 2 stars 3 stars 4 stars 5 stars
comments

22 Grand Job Bass Tab

   
Band: The Rakes
Song: "22 Grand Job"
Album: "Capture/Release"
Tuning: Normal (EADG)

Intro/Verse

G---------------------------------|
D---------------------------------|
A-7-7-7-7-7-7-7-7-7-7-7-7-7-7-7-7-|
E---------------------------------|


Chorus

G------------------------|
D------------------------|
A-7--7--2--2--4--4--4--4-|
E------------------------|   (slide between notes)

[ Tab from: http://www.guitartabs.cc/tabs/t/the_rakes/22_grand_job_btab.html ]
'Handclaps' part

G----------------------------|
D----------------------------|
A-7-7-7-7-7----x-x-x---x-x-x-|
E----------------------------|

Final Chorus (Key change)

G------------------------|
D------------------------|
A-8--8--3--3--5--5--5--5-|
E------------------------|


Timing

Intro/Verse x4
Chorus x4
Intro/Verse x4
Chorus x4
'Handclaps' part x4
(pause)
Chorus x4
Key Change Chorus x4
Comments