The Raincoats - No Side To Fall In Chords & Tabs

 

No Side To Fall In Chords & Tabs

The Raincoats Chords & Tabs

Version: 1 Type: Bass Tab 0 ratings
1 star 2 stars 3 stars 4 stars 5 stars
comments

No Side To Fall In Bass Tab

-------------------------------------------------------------------------------
                             NO SIDE TO FALL IN - The Raincoats
-------------------------------------------------------------------------------
Tabbed by: Edie
[ Tab from: http://www.guitartabs.cc/tabs/t/the_raincoats/no_side_to_fall_in_btab.html ]
Main Riff (3x)
G|--------------------1--1-----------------------1--1----1----------------1--33-1----|
D|------------------4------44------------------4------44---4---1----11-4-------------|
A|-----4-----44--2----------------4-----44--2---------------------4------------------|
E|--2----2--2------------------2----2--2---------------------------------------------|


then this (11x) - rhythm differs each time:

G|-------------------------|
D|-----------------4444----|
A|------------2222---------|
E|---22222222--------------|
Comments