The Radio Dept - Bus Chords & Tabs

 

Bus Chords & Tabs

The Radio Dept Chords & Tabs

Version: 1 Type: Chords

Bus Chords

   
Tabbed by Michael Hartnett
If this song has gotten you through as many hard times as it has me, i'm sure 
you'll appreciate this (albeit mediocre) tab.

    A     B     E     B7ish G#m   A*    Am 
e|--0-----x-----0-----x-----4-----5-----5--|
B|--2-----x-----0-----x-----4-----5-----5--|
G|--2-----4-----1-----x-----4-----6-----5--|
D|--2-----4-----2-----1-----6-----7-----7--|
A|--0-----2-----2-----2-----6-----7-----7--|
E|--x-----x-----0-----x-----4-----5-----5--|

Intro: A B E (x3) A (top notes accented)  B7
[ Tab from: http://www.guitartabs.cc/tabs/t/the_radio_dept/bus_crd.html ]
B7                    A      B
You need to take that bus
B                        E      G#m
Goodbyes aren't all that good
G#m            A*        A (I just like the sound of the slide)
Mother is in a mess
A                        B
What are you gonna do if nothing happens?
E
Nothing happens
Am
Nothing happens
G#m                   
Nothing happens
B               (repeat intro)->A    B E (x3) A B7
Nothing happens around here any more

Leaving the girls behind
Goodbyes aren't all that good
Daddy says you'll be fine
But what is he gonna say if nothing happens?

Nothing happens
Nothing happens
Nothing happens
B                               E
Nothing happens around here any more

Am G#m B
Repeat intro
End on E
e|-----0------------0--|
B|-----0------------0--|
G|-----1------------1--|
D|-----2--4-4-4-4p2-2--|
A|-----2------------2--|
E|-----0------------0--|

I implore you to correct or add to this.