The Raconteurs - Steady As She Goes Chords & Tabs

 

Steady As She Goes Chords & Tabs

The Raconteurs Chords & Tabs

Version: 2 Type: Tab

Steady As She Goes Tab

   
The Raconteurs - Steady As She Goes

Hear it on: http://www.theraconteurs.com/


Tabbed by: Marc Wichmann
Date: 4/2 2006 12:14


Tuning: Standard


INTRO:

e|-----------------|
B|-----------------|
G|-7~--7~--6~--4~--|
D|-----------------|
A|-----------------|
E|-----------------|

Verse:
e|----------------------|
B|---4----2----2----0---|
G|---4----2----2----1---|
D|---4----2----2----2---|
A|----------------------| 
E|----------------------|

"Steady as she goes..."
e|----------------------------------|
B|----------------------------------|
G|---4-4-4-----------2-2-2----------|
D|---4-4-4---4-4-4---2-2-2---2-2-2--|
A|---2-2-2---4-4-4---0-0-0---2-2-2--|
E|-----------2-2-2-----------0-0-0--|
[ Tab from: http://www.guitartabs.cc/tabs/t/the_raconteurs/steady_as_she_goes_tab_ver_2.html ]
"Well here we go again..."

e|------------------------------------------------------|
B|------------------------------------------------------|
G|--------------------2-2-2-2-2-2-2-2--4-4-4-4-4-4-4-4--|
D|---5-5-5-5-5-5-5-5--2-2-2-2-2-2-2-2--4-4-4-4-4-4-4-4--|
A|---5-5-5-5-5-5-5-5--0-0-0-0-0-0-0-0--2-2-2-2-2-2-2-2--|
E|---3-3-3-3-3-3-3-3------------------------------------|

BRIDGE

e|-----------------|
B|-------------5---|
G|-7~--7~--6~------|
D|-----------------|
A|-----------------|
E|-----------------|

END ON Bm


| /  slide up
| \  slide down
| h  hammer-on
| p  pull-off
| ~  vibrato
| +  harmonic
| x  Mute note
===============================================================================