The Raconteurs - Hands Chords & Tabs

 

Hands Chords & Tabs

The Raconteurs Chords & Tabs

Version: 1 Type: Tab

Hands Tab

The Raconteurs
Hands
Guitarist: Jack White Brendon Benson

Intro & Verse

|----3--2-|
|-2--0--3-|
|-2--0--2-|
|-2--0--0-| x8 When In Verse Hit Top hit E & A Only
|-0--2----|
|----3----|

Chorus

|------------------3-3-3-3-3-3-3-3--2-2-2-2-2-2-2-2-2-2-2-2-2-2-2-2-|
|------------------0-0-0-0-0-0-0-0--3-3-3-3-3-3-3-3-3-3-3-3-3-3-3-3-|
|------------------0-0-0-0-0-0-0-0--2-2-2-2-2-2-2-2-2-2-2-2-2-2-2-2-|
|-3-3-3-3-3-3-3-3--0-0-0-0-0-0-0-0--0-0-0-0-0-0-0-0-0-0-0-0-0-0-0-0-|x 2
|-3-3-3-3-3-3-3-3--2-2-2-2-2-2-2-2----------------------------------|
|-1-1-1-1-1-1-1-1--3-3-3-3-3-3-3-3----------------------------------|

Intro
Verse
Chorus

Break

|-----------------------------------------|
|-----------------------------------------|
|-----------------------------------------|
|-----------------------------------------|
|-----------------------------------------|
|-0-0-0-0-0-0-0-0-hit more the first time-| .......
[ Tab from: http://www.guitartabs.cc/tabs/t/the_raconteurs/hands_tab.html ]
     |----------------------------------------------------|
     |----------------------------------------------------|
     |----------------------------------------------------|
     |----------------------------------------------------|
     |-5-5-5-5-5-5-5-5-5--3-3-3-3-3-3-3-3-----------------| x 8 after The
.....|------------------------------------3-3-3-3-3-3-3-3-|     First Time

however many times ^


|------------------2-2-2-2-2-2-2-2-----------------------------------|
|------------------3-3-3-3-3-3-3-3-----------------------------------|x 6
|------------------2-2-2-2-2-2-2-2--5-5-5-5-5-5-5-5------------------|
|-2-2-2-2-2-2-2-2--0-0-0-0-0-0-0-0--5-5-5-5-5-5-5-5--0-0-0-0-0-0-0-0-|
|-2-2-2-2-2-2-2-2-------------------3-3-3-3-3-3-3-3--2-2-2-2-2-2-2-2-|
|-0-0-0-0-0-0-0-0------------------------------------3-3-3-3-3-3-3-3-|

Add This After The 1st Time with the last five

|----------|
|----------|
|-12-11-10-|
|-12-11-10-|
|-10-9--8--|
|----------|


End