The Protomen - Unrest In The House Of Light Chords & Tabs

 

Unrest In The House Of Light Chords & Tabs

The Protomen Chords & Tabs

Version: 1 Type: Tab

Unrest In The House Of Light Tab

   
Artist         Song                           Album
The Protomen | Unrest in the House of Light | The Protomen

Tabbed by C. Poluk (Skamando)

Standard Tuning

Intro

E|----------------------------|
B|----------------------------|
G|----------------------------|
D|------------------2---------|
A|-----2--0-0h2--------0-0h2--|
E|--0------------0------------|

Main Riff
      Em
E|---------------|
B|---------------|
G|---------------|   Repeated through
D|-----2---------|     most of song
A|--------0-0h2--|
E|--0------------|

"Many times before you sleep", "This time understand that what I'm telling..." etc.
     C     C
E|----3333--3333-|
B|----5555--5555-|
G|----5555--5555-|
D|----5555--5555-|
A|--3------3-----|
E|--3------3-----|

"This time listen carefully", "Every single word is true", etc.
     G    F#   Em
E|--------------------------|
B|--------------------------|
G|--------------------------|
D|--(5)--(4)--(2)--2--------|
A|--(5)--(4)--(2)----0-0h2--|
E|---3----2----0------------|
[ Tab from: http://www.guitartabs.cc/tabs/t/the_protomen/unrest_in_the_house_of_light_tab.html ]
"You need to know..."
    Cm  Bm Am     G  F# Em
E|--8---7--55555--3--3--0--|
B|--8---7--55555--3--3--0--|
G|--8---7--55555--4--3--0--|
D|--10--9--77777--5--4--2--|
A|--10--9--77777--5--4--2--|
E|--8---7--55555--3--2--0--|

Solo (With backing chords)
      Am     C      Am                           C        B
E|----------------5-7--12-14-15--14p12h14--14h15-12---12--11--|
B|--0/5--5-7-8--8---------------------------------------------|
G|------------------------------------------------------------|
D|------------------------------------------------------------|
A|------------------------------------------------------------|
E|------------------------------------------------------------|

Ending
"You need to know: you are not him, this fights not yours, you can not win"
    Cm  Bm  A      G  F# Em
E|--8---7--55555~--3--3--0--|
B|--8---7--55555~--3--3--0--|
G|--8---7--66666~--4--3--0--|
D|--10--9--77777~--5--4--2--|
A|--10--9--77777~--5--4--2--|
E|--8---7--55555~--3--2--0--|

These pieces are all used and repeated throughout the song, and when not in use, the 
main riff is being played.

My second tab, and first one done completely by ear.
Contact me @ casey.poluk@yahoo.com for any corrections or suggestion.
Thanks!