The Pretty Reckless - My Medicine Chords & Tabs

 

My Medicine Chords & Tabs

The Pretty Reckless Chords & Tabs

Version: 2 Type: Bass Tab 0 ratings
1 star 2 stars 3 stars 4 stars 5 stars
comments

My Medicine Bass Tab

Somebody mixed my medicine
Somebody mixed my medicine

Well, you hurt where you sleep...
F#|----------------------------------|
C#|----------------------------------|
G#|----------------------------------|
D#|0-------2~------4~------6---------|

Woman to the left and a boy to the right..
F#|------------------------------------|
C#|------------------------------------|
G#|2-------4~--------------------------|
D#|0-------2~------4~------6-----------|

CHORUS
Somebody mixed my medicine
F#|----------------------------------|
C#|----------------------------------|
G#|----------------------------------| (x2)
D#|0-------2~------4~------6---------|

F#|----------------------------------|
C#|----------------------------------|
G#|----------------------------------|
D#|-0-0-0-0-2-2-2-2-4-4-4-4-6-6-6-6--|

F#|----------------------------------|
C#|----------------------------------|
G#|-2-2-2-2-4-4-4-4------------------|
D#|-----------------4-4-4---6-6-6~---|

VERSE TWo
 Well, I'll drink what you leak...
F#|--------------------------------|
C#|--------------------------------|
G#|--------------------------------|
D#|0~------2-------4-------6-------|

Got a man to his left...
F#|---------------------------------|
C#|---------------------------------|
G#|2-------4------------------------|
D#|----------------4-4-4-----6-6-6--|


CHORUS
Somebody mixed my medicine
F#|----------------------------------|
C#|----------------------------------|
G#|----------------------------------| (x2)
D#|0-------2-------4-------6---------|

F#|----------------------------------|
C#|----------------------------------|
G#|----------------------------------|
D#|-0-0-0-0-2-2-2-2-4-4-4-4-6-6-6-6--|
[ Tab from: http://www.guitartabs.cc/tabs/t/the_pretty_reckless/my_medicine_btab_ver_2.html ]
F#|----------------------------------|
C#|----------------------------------|
G#|-2-2-2-2-4-4-4-4------------------|
D#|-----------------4-4-4---6-6-6~---|


BRIDGE
There's a tiger in the room...
F#|----------------------------------|
C#|----------------------------------|
G#|----------------------------------|
D#|-2-2-2-2-2-2-2-2-0-0-0-0-0-0-0-0--|

Then I turn around and think I see...
F#|----------------------------------|
C#|----------------------------------|
G#|----------------------------------|
D#|-1111111122222222---6----4--------|


VERSE THREE
Well you hurt where you sleep...
F#|--------------------------------|
C#|--------------------------------|
G#|--------------------------------|
D#|0~------2-------4-------6-------|

Got a woman to ya left...
F#|---------------------------------|
C#|---------------------------------|
G#|2-------4------------------------|
D#|----------------4-------6-6-6----|

CHORUS + OUTRO
Somebody mixed my medicine
F#|-----------------------------------|
C#|-----------------------------------|
G#|-----------------------------------| (x2)
D#|0~------2-------4-------6----------|

F#|----------------------------------|
C#|----------------------------------|
G#|----------------------------------|
D#|-0-0-0-0-2-2-2-2-4-4-4-4-6-6-6-6--|

F#|----------------------------------|
C#|----------------------------------|
G#|-2-2-2-2-4-4-4-4------------------|
D#|-----------------4-4-4-4-6-6-6-6--|

F#|----------------------------------|
C#|----------------------------------|
G#|----------------------------------|
D#|-0-0-0-0-2-2-2-2-4-4-4-4-6-6-6-6--|

F#|----------------------------------|
C#|----------------------------------|
G#|----------------------------------|
D#|-0-0-0---2-2-2---4-4-4---6-6-6----|

Somebody mixed my medicine
Somebody mixed my medicine
Comments