The Police - When The World Is Running Down Chords & Tabs

 

When The World Is Running Down Chords & Tabs

The Police Chords & Tabs

Version: 1 Type: Bass Tab 0 ratings
1 star 2 stars 3 stars 4 stars 5 stars
comments

When The World Is Running Down Bass Tab

When the World Is Running Down, You Make the Best of What's Still Around
The Police
Zenyattą Mondatta 1980



4
-   Crotchet= 124 (approx.)
4

  C9sus4         D9sus4         Em11
G|--------------|--------------|----------------|----------------|
D|--------------|--------------|---0-2----0-2---|---0-2----0-2---|
A|---1-3----1-3-|-0-3-5--0-3-5-|-2------2-------|-2------2-------|
E|-3------3-----|--------------|--------------0-|--------------0-|
[ Tab from: http://www.guitartabs.cc/tabs/t/the_police/when_the_world_is_running_down_btab.html ]
  C9sus4         D9sus4           Em11
G|--------------|----------------|----------------|----------------|
D|--------------|----------------|---0-2----0-2---|---0-2----0-2---|
A|---1-3----1-3-|-0-3-5--0-3-5-5-|-2------2-------|-2------2-------|
E|-3------3-----|----------------|--------------0-|--------------0-|

  C9sus4         D9sus4         Em11
G|--------------|--------------|-----------------|----------------|
D|--------------|--------------|---0-2----0-2-2--|---0-2----0-2---|
A|---1-3----1-3-|-0-3-5--0-3-5-|-2------2--------|-2------2-------|
E|-3------3-----|--------------|---------------0-|--------------0-|

  C9sus4         D9sus4         Em11
G|--------------|--------------|-----------------|----------------|
D|--------------|--------------|---0-2----0-2-2--|---0-2----0-2---|
A|---1-3----1-3-|-0-3-5--0-3-5-|-2------2--------|-2------2-------|
E|-3------3-----|--------------|---------------0-|--------------0-|

Slight changes on each stave so look out!
Comments