The Police - Synchronicity 2 Chords & Tabs

 

Synchronicity 2 Chords & Tabs

The Police Chords & Tabs

Version: 1 Type: Bass Tab 0 ratings
1 star 2 stars 3 stars 4 stars 5 stars
comments

Synchronicity 2 Bass Tab

The Police -"Synchronicity 2" - Bass Tab

Common time(4/4)
Standard Tuning(EADG)

Intro:
 		   (x19)
|-------------------|-------------------|
|*-----------------*|-------------------|
|*-----------------*|---------5-5---0-0-|
|--2-2-2-2-2-2-2-2--|-2-2-2-2-----------|
   1 & 2 & 3 & 4 &    1 & 2 & 3 e & a 4

Verse:

|----------|---------|---------------|----------------|
|*---------|---------|---------------|---------------*|
|*-0-------|-4-------|-r-2-2-2-2-0---|-2-2-2-2-2-2-0-*| (x4)
|----------|---------|---------------|----------------|
   1 2 3 4   1 2 3 4   1 & 2 & 3 & 4   1 & 2 & 3 & 4

|-------------|
|*-----------*|
|*-0-------0-*|(x8)
|-------------|
   1 2 3 4 &   

  		   (x6)    
|-------------------|---------|---------|
|*-----------------*|---------|-2-------|
|*-5-5-5-5-5-5-5-5-*|---------|---------|
|-------------------|-0-------|---------|
   1 & 2 & 3 & 4 &    1 2 3 4   1 2 3 4
[ Tab from: http://www.guitartabs.cc/tabs/t/the_police/synchronicity_2_btab.html ]
|-----------------|-----------------|-----------------|
|-2-2-2-2-2-2-2-2-|-2-2-2-2-2-2-2-2-|-5-5-5-5-5-5-5-5-|
|-----------------|-----------------|-----------------|
|-----------------|-----------------|-----------------|
  1 & 2 & 3 & 4 &   1 & 2 & 3 & 4 &   1 & 2 & 3 & 4 &

|-----------------|-----------------|-----------------|
|-3-3-3-3-3-3-3-3-|-2-2-2-2-2-2-2-2-|-2-2-2-2-2-2-2-2-|
|-----------------|-----------------|-----------------|
|-----------------|-----------------|-----------------|
  1 & 2 & 3 & 4 &   1 & 2 & 3 & 4 &   1 & 2 & 3 & 4 &

|-----------------|-------------------|
|-2-2-2-2-2-2-2-2-|-2-2-2-2-----------|
|-----------------|---------5-5---0-0-|
|-----------------|-------------------|
  1 & 2 & 3 & 4 &   1 & 2 & 3 e & a 4

Middle:
	 (x15)
|-----------|---------------|
|*---------*|---------------|
|*---------*|-----5-5---0-0-|
|--2--------|-2-------------|
   1 2 3 4    1 2 3 e & a 4

Outro:

|-------------------|
|*-----------------*|
|*-----------------*| 
|--0-0-0-0-0-0-0-0--|

Song Structure:
Intro(x1)
Verse(x2)
Middle(x1)
Verse(x1)
Outro(fade-out)














Comments