The Police - So Lonely Chords & Tabs

 

So Lonely Chords & Tabs

The Police Chords & Tabs

Version: 2 Type: Bass Tab 0 ratings
1 star 2 stars 3 stars 4 stars 5 stars
comments

So Lonely Bass Tab

Title: So Lonely
Artist: The Police

Great song by The Police. Here ya go. Incredibly Easy to play.

Verse

x]------------------------------------
x]------------------------------------
x]---0-3--3---------------------------
x]----------3--3--5--5--1-------------

Chorus

x]-------------------------------------------------------------
x]-------------------------------------------------------------
x]-----3-3-3-3-3-3-3-------------------------------------------
x]-------------------3-3-3-3-3-3-3-5-5-5-5-5-5-5---1-1-1---1-1-1

Modulated Verse (starts at time 2:28)
[ Tab from: http://www.guitartabs.cc/tabs/t/the_police/so_lonely_btab_ver_2.html ]
x]-------------------------------------------------
x]-------------------------------------------------
x]---0-5--5----------------------------------------
x]----------5--5-7--7--5---------------------------

Modulated Chorus

x]---------------------------------------------------------------
x]---------------------------------------------------------------
x]-----5-5-5-5-5-5-5---------------------------------------------
x]-------------------5-5-5-5-5-5-5-7-7-7-7-7-7-7---1-1-1---1-1-1-


That's all I got for this song.
Any Questions, email me at drummerdude713@yahoo.com 
or i-m me at my AIM at DoTheDo up urs
Tabbed on : April 1st 2004
Comments