The Police - Every Breath You Take Chords & Tabs

 

Every Breath You Take Chords & Tabs

The Police Chords & Tabs

Version: 4 Type: Tab 0 ratings
1 star 2 stars 3 stars 4 stars 5 stars
comments

Every Breath You Take Tab

e----------------------------------------------------------------
B-0-1-0--------0-1-0--------------0-1-------1-0-------0----------
G-------2-0-0--------2-0-0-----0-0-----0-00-----2-2-0---0-0------
D--------------------------2-------------------------------------
A----------------------------------------------------------------
E----------------------------------------------------------------

e----------------------------------------------------------------
B-0-1-0---------0-1-0------------0-1------1-0-------0------------
G--------2-0-0--------2-0-0--0-0-----0-00-----2-2-0---2-0--0-----
D----------------------------------------------------------------
A----------------------------------------------------------------
E----------------------------------------------------------------
[ Tab from: http://www.guitartabs.cc/tabs/t/the_police/every_breath_you_take_tab_ver_4.html ]
e---------0----00---------3-0-33-0-3-0--0-55-1-0-3-3-------------
B---0-3-----------3---0------------------------------------------
G-0-----0-----------0--------------------------------------------
D----------------------------------------------------------------
A----------------------------------------------------------------
E----------------------------------------------------------------
e----------------------------------------------------------------
B-0-1-0---------0-1-0------------0-1------1-0-------0------------
G--------2-0-0--------2-0-0--0-0-----0-00-----2-2-0---2-0--0-----
D----------------------------------------------------------------
A----------------------------------------------------------------
E----------------------------------------------------------------

e---------0----00---------3-0-33-0-3-0--0-55-1-0-3-3-------------
B---0-3-----------3---0------------------------------------------
G-0-----0-----------0--------------------------------------------
D----------------------------------------------------------------
A----------------------------------------------------------------
E----------------------------------------------------------------

ok thats it. its pretty easy but you need to hear the song to get the rythym
becasue there are a lot of half and eight notes.....
Comments