The Police - Every Breath You Take Chords & Tabs

 

Every Breath You Take Chords & Tabs

The Police Chords & Tabs

Version: 1 Type: Tab 0 ratings
1 star 2 stars 3 stars 4 stars 5 stars
comments

Every Breath You Take Tab

police,every breath you take.
Tabbed by Jibesh,jibesh@hotmail.com.
  
I posted this one but it was wrong so i post thhis again ,this song is by sting but i think it was sung by Police, sorry for that.

Intro:
       Pick the notes with palm mute.
e--------------------------------------
B---------------------------------------
G----------2-------4----2----0--------------
D------0-------0-----------------0---------  
A---------------------------------------
E---3-------------------------------------
 this is a G chord.repeat this for two times.
e--------------------------------------
B---------------------------------------
G-----------------------0-----------------
D--------------4------------4---------4----
A---------2--------2-------------2---------
E-----0-----------------------------------
repeat for two times.put you index finger on the 2nd fret of the A string(5th string) and ring finger on the 4th fret of D string(4th string),this will make you to play easier.
[ Tab from: http://www.guitartabs.cc/tabs/t/the_police/every_breath_you_take_tab.html ]
e--------------------------------------
B---------------------3------------------
G-------------5-----------5-------5---------
D---------5-------5-----------5------------
A-----3----------------------------------
E----------------------------------------
  hold the chord Csus2 and play this for two times.

e--------------------------------------
B---------------------5------------------
G-------------7-----------7-------7---------
D---------7-------7-----------7------------
A-----5----------------------------------
E----------------------------------------
  repeat for two times ,hold Dsus2 and pick.
e--------------------------------------
B---------------------7------------------
G-------------9-----------9-------9---------
D---------9-------9-----------9------------
A-----7----------------------------------
E----------------------------------------
  repeat for two times.hold Esus2 and pick.
the whole song goes with a minor variation.so enjoy.
 
:: Ultimate Guitar Archive :: 
http://www.ultimate-guitar.com 

Comments