The Police - Dont Stand So Close To Me Chords & Tabs

 

Dont Stand So Close To Me Chords & Tabs

The Police Chords & Tabs

Version: 1 Type: Bass Tab 0 ratings
1 star 2 stars 3 stars 4 stars 5 stars
comments

Dont Stand So Close To Me Bass Tab

   
THE POLICE - "Don't Stand So Close to Me" - Bass Tab

This version is transposed up a semitone so that it can be played
on standard tuning(ie. D# = E, B = C, etc)

Standard Tuning(EADG)
Common Time(4/4)

VERSE 1:
                                      (x7) 
|----------|---------|---------|----------|
|*---------|---------|---------|---------*|
|*---------|---------|---------|---------*|
|--0-------|---------|-4-------|----------|
   1 2 3 4   1 2 3 4   1 2 3 4   1 2 3 4

CHORUS:
|-----------------|---8-----8---|-----------------|-------------|
|---------8-8-8-8-|-----8-8---8-|---------8-8-8-8-|-----8-8---8-|
|-r-6-6-6---------|-6-----------|-r-6-6-6---------|-------------|
|-----------------|-------------|-----------------|-6-6-----6---|
  1 & 2 & 3 & 4 &   1 2 3 & 4 &   1 & 2 & 3 & 4 &   1 2 3 & 4 &

|-r-8-8-8---------|-------------|-r-5---5-----5---|-------------|
|---------8-8-8-8-|-----8-8---8-|---------8-8---8-|-----8-8---8-|
|-----------------|-6-6-----6---|-----------------|-------------|
|-----------------|-------------|-----------------|-6-6-----6---|
  1 & 2 & 3 & 4 &   1 2 3 & 4 &   1 & 2 & 3 & 4 &   1 2 3 & 4 &

|-------------|
|-8---------8-|
|-------------|
|---6-6-6-6---|
  1 & 2 3 4 &

VERSE 2:
									       (x4)
|------------------|-------------|-----------------|--------------|
|*-----------------|-------------|-----------------|-------------*|
|*-7-7---7-7-7---7-|-7-7-7-7---7-|-----------------|-------------*|
|------------------|-------------|-4-4---4-4-4---4-|-4-4-4-4---4--|
   1 & 2 & 3 & 4 &   1 2 3 & 4 &   1 & 2 & 3 & 4 &   1 2 3 & 4 &

CHORUS
[ Tab from: http://www.guitartabs.cc/tabs/t/the_police/dont_stand_so_close_to_me_btab.html ]
VERSE 3:
									         (x4)
|-----------------|---------------|-----------------|---------------|
|*----------------|---------------|-----------------|--------------*|
|*7-7---7-7-7---7-|-7-7-7-7-7-7---|-----------------|--------------*|
|-----------------|---------------|-4-4---4-4-4---4-|-4-4-4-4-4-4---|
  1 & 2 & 3 & 4 &   1 & 2 & 3 & 4   1 & 2 & 3 & 4 &   1 & 2 & 3 & 4

END:
|---8-8-8---------|---------------|---5-------3-5-3-|-------------|
|---------8-8---8-|-------8-8---8-|-----------------|---------8---|
|-6---------------|-6-6-6-----6---|-------3---------|-------------|
|-----------------|---------------|-----------------|-6-6-6-6---6-|
  1 & 2 & 3 & 4 &   1 & 2 3 & 4 &   1 & 2 & 3 & 4 &   1 2 3 & 4 &

|---8-8-8---------|---8---------|---5-------3-5-3-|-------------|
|---------8-8---8-|-----8-8---8-|-----------------|---------8---|
|-6---------------|-6-------6---|-------3---------|-------------|
|-----------------|-------------|-----------------|-6-6-6-6---6-|
  1 & 2 & 3 & 4 &   1 2 3 & 4 &   1 & 2 & 3 & 4 &   1 2 3 & 4 &

|-----8-8---------|-------------|---5-------3-5-3-|-------------|
|---------8-8---8-|-----8-8---8-|-----------------|---------8---|
|-6-6-------------|-6-6-----6---|-------3---------|-------------|
|-----------------|-------------|-----------------|-6-6-6-6---6-|
  1 & 2 & 3 & 4 &   1 2 3 & 4 &   1 & 2 & 3 & 4 &   1 2 3 & 4 &

|-----8-8---------|---------------|---5-------3-5-3-|-------------|
|---------8-8---8-|-------8-8-8-8-|-----------------|---------8---|
|-r-6-------------|-6-6-6---------|-------3---------|-------------|
|-----------------|---------------|-----------------|-6-6-6-6---6-|
  1 & 2 & 3 & 4 &   1 & 2 3 & 4 &   1 & 2 & 3 & 4 &   1 2 3 & 4 &

|---8-8-8---------|---------------|---5-------3-5-3-|-------------|
|---------8-8---8-|-------8-8---8-|-----------------|---------8-8-|
|-6---------------|-6-6-6-----6---|-------3---------|-------------|
|-----------------|---------------|-----------------|-6-6-6-6-----|
  1 & 2 & 3 & 4 &   1 & 2 3 & 4 &   1 & 2 & 3 & 4 &   1 2 3 & 4 &



Comments