The Police - Deathwish Chords & Tabs

 

Deathwish Chords & Tabs

The Police Chords & Tabs

Version: 1 Type: Bass Tab 0 ratings
1 star 2 stars 3 stars 4 stars 5 stars
comments

Deathwish Bass Tab

Deathwish
---------

Performed by the Police

Intro:

G-----------------------
D-----------------------
A---5--5--5-r-5-5-------  (repeat 11 X's)
E-----------------------

Then play other bit:

G----------------------
D----------------------
A---5--5--5-5--5-9-(8)-*(lightly muted)
E----------------------

(played moderately fast)
[ Tab from: http://www.guitartabs.cc/tabs/t/the_police/deathwish_btab.html ]
G-----------------------------------------
D-----------9--7--9--9-------9--7--7------
A----7--10-------------7--10---------9--7-  (Repeat 3X's)
E-----------------------------------------

G-----------------------------------------
D-----------9--7--9--9-------9--7--7------
A----7--10-------------7--10---------9\5--
E-----------------------------------------

Back to Intro (Repeat 11 X's again)
Other Bit (Repeat 3 X's again)
Intro (11 X's again)
Other Bit (3 X's)
Intro to fade...


There is a pattern to it, that's not too hard to 
figure out. 

That's about it. Enjoy! 

Please send comments or corrections to Malav Trivedi at
machmood@eden.rutgers.edu
Comments