The Police - Been Down So Long Chords & Tabs

 

Been Down So Long Chords & Tabs

The Police Chords & Tabs

Version: 1 Type: Bass Tab 0 ratings
1 star 2 stars 3 stars 4 stars 5 stars
comments

Been Down So Long Bass Tab

G------------------------------------------|
D--------3--5----------3--5----------3--5--|
A-----5-------------5--------------5-------|
E---3------------3-------------3-----------|
[ Tab from: http://www.guitartabs.cc/tabs/t/the_police/been_down_so_long_btab.html ]
G------------------3--5--------------------|
D---------------5----------------------3--5|
A-----0-1-2--3-----------3----------5------|
E---3----------------------0-1-2--3--------|


G------------------5--7--------3--5----------|
D---------------7-----------5----------------|
A-----2-3-4--5-----------3------------2-3-4-5|
E---3-------------------------------3--------|


G--------|
D--------|
A--------|
E-0-1-2--|


And so you just take this again and again...

ENJOY...
Comments