The Police - A Sermon Chords & Tabs

 

A Sermon Chords & Tabs

The Police Chords & Tabs

Version: 2 Type: Tab 0 ratings
1 star 2 stars 3 stars 4 stars 5 stars
comments

A Sermon Tab

Tabbed by:joel
Email:

Tuning:standard

thats the intro and main verse (of course you repeat each chord a couple of times)

e|---3---2---3--2----0--------------------------------------------------------------|
B|---3---3---3--3----1--------------------------------------------------------------|
G|---2---2---2--2----0--------------------------------------------------------------|
D|-------------------2--------------------------------------------------------------|
A|-------------------3--------------------------------------------------------------|
E|-------------------0--------------------------------------------------------------|
[ Tab from: http://www.guitartabs.cc/tabs/t/the_police/a_sermon_tab_ver_2.html ]
then theres that Chorus type bit which goes...
 "it written in the news.........)
e|-------------------------------------------------------------------------------------|
B|-------------------------------------------------------------------------------------|
G|-22-55--7777-------------------------------------------------------------------------|
D|-22-55--7777-------------------------------------------------------------------------|
A|-00-33--5555-------------------------------------------------------------------------|
E|-------------------------------------------------------------------------------------|

then theres that bit after the seond chorus which goes........
e|------2--------------1------333---------------------------------------------------|
B|--------3----------1--------333---------------------------------------------------|
G|---2------2------------2----------------------------------------------------------|
D|-------------0--------------------------------------------------------------------|
A|----------------------------------------------------------------------------------|
E|----------------------------------------------------------------------------------|
or something along the lines of that basic formation of D, F then G. its yours to play
with. enjoy........
Comments