The Pink Spiders - Modern Swingers Chords & Tabs

 

Modern Swingers Chords & Tabs

The Pink Spiders Chords & Tabs

Version: 1 Type: Tab 0 ratings
1 star 2 stars 3 stars 4 stars 5 stars
comments

Modern Swingers Tab

   
-------------------------------------------------------------------------------
			     Modern Swinger - The Pink Spiders
-------------------------------------------------------------------------------
Tabbed by: Steven Gladman
Email: stevie.gladman@ntlworld.com
The Pink Spiders are a new band from the US. They recently signed a big record
deal and are thought to be one of the next big bands of the future.


Tuning: EADGBe

e|------------------|
B|------------------|
G|------------------|
D|------------------|
A|-4----------------| X 2
E|-----5-2-4---5-2--|

e|-------------------------------------------------------------------|
B|-------------------------------------------------------------------|
G|-1-1---------1-----------------------------------------------------|
D|-----2-2--------4-4-4-4-4-2-1-2--4-4-1-1-----4--6-6-6-6-6-7-6-4----|
A|---------4-4-----------------------------2-2-----------------------|
E|-------------------------------------------------------------------|

e|-------------------------------------------------|
B|-------------------------------------------------|
G|-1-1---------1-----------------------------------|
D|-----2-2--------4-4-4-4-4-2-1-2--4-4-1-1-----4---|
A|---------4-4-----------------------------2-2-----|
E|-------------------------------------------------|

G# 

VERSE

C# E B G# B C  

C# E B G# B G#

A E A E B A

CHORUS

E G# C# A   X 4
[ Tab from: http://www.guitartabs.cc/tabs/t/the_pink_spiders/modern_swingers_tab.html ]
e|-------------------------------------------------------------------|
B|-------------------------------------------------------------------|
G|-1-1---------1-----------------------------------------------------|
D|-----2-2--------4-4-4-4-4-2-1-2--4-4-1-1-----4--6-6-6-6-6-7-6-4----|
A|---------4-4-----------------------------2-2-----------------------|
E|-------------------------------------------------------------------|

VERSE

C# E B G# B C  

C# E B G# B G#

A E A E B A

CHORUS

E G# C# A   X 4

BRIDGE

e|----------------------------------------------------------------------------|
B|---------------------------------------------------------------------9------|
G|-------9-------9----9----------11----11---------11-----11---11--------------|
D|-11-11---11-11---11---10-10-10----10----10--9-9----9-9----9----8-8-8--------|
A|----------------------------------------------------------------------------|
E|----------------------------------------------------------------------------| X 2

A A A A B B B

CHORUS

E G# C# A   X 8

e|-------------------------------------------------------------------|
B|-------------------------------------------------------------------|
G|-1-1---------1-----------------------------------------------------|
D|-----2-2--------4-4-4-4-4-2-1-2--4-4-1-1-----4--6-6-6-6-6-7-6-4----|
A|---------4-4-----------------------------2-2-----------------------|
E|-------------------------------------------------------------------|

e|-------------------------------------------------------------------|
B|-------------------------------------------------------------------|
G|-1-1---------1-----------------------------------------------------|
D|-----2-2--------4-4-4-4-4-2-1-2--4-4-1-1-----4--6-6-6-6-6-7-6-4----|
A|---------4-4-----------------------------2-2-----------------------|
E|-------------------------------------------------------------------|

Finish on E








| /  slide up
| \  slide down
| h  hammer-on
| p  pull-off
| ~  vibrato
| +  harmonic
| x  Mute note
===============================================================================
Comments