The Pierces - Sticks And Stones Chords & Tabs

 

Sticks And Stones Chords & Tabs

The Pierces Chords & Tabs

Version: 1 Type: Bass Tab

Sticks And Stones Bass Tab

Sticks and Stones by the Pierces on bass <3
surely not perfect, but something like a beginning ;)


Riff 1 ( Verse )

|--------------------------------------|
|--------------------------------------|
|--8-8-8-8-8-8-8-8-----8-----6-8-8-6-8-|
|------------------9-9---8-8-----------|

Riff 2 ( Bridge )

|----------------------------------|
|----------5---------------5-------|
|------5-7---7-5-------5-7---7-5---|
|--5-7-----------7-5-7-----------7-|

Riff 3 ( Chorus )

|--------------------|
|--------------------|
|--8-8---------------|
|------11-11-9-9-8-8-|

Riff 4 ( Chorus Ende )
[ Tab from: http://www.guitartabs.cc/tabs/t/the_pierces/sticks_and_stones_btab.html ]
|----------|
|----------|
|----------|
|--9-9-8-8-|



Anordnung:

"Hey Domino, I am stoppin you from fallin [...]"
2x Riff 1

"Iím the one you want [...]"
4x Riff 2

"Sticks and Stones will break your bones [...]"
4x Riff 3

"Itís awfully hard to stop [...]"
2x Riff 4

(short bass break)

"Hey waterfall [...]"
2x Riff 1

"Iím the one you want [...]"
4x Riff 2

"Sticks and Stones will break your bones [...]"
4x Riff 3

"Itís awfully hard to stop [...]"
3x Riff 4


"Sit back down [...]"
1x Riff 1

"Iím the one you want [...]"
8x Riff 2

"Sticks and Stones will break your bones [...]"
4x Riff 3