The Pax Cecilia - Opening Monologue Chords & Tabs

 

Opening Monologue Chords & Tabs

The Pax Cecilia Chords & Tabs

Version: 1 Type: Tab 0 ratings
1 star 2 stars 3 stars 4 stars 5 stars
comments

Opening Monologue Tab

The Pax Cecilia - Opening Monologue
Tabbed by Matt F'n Moeller
standard tuning

e|------------------------------0-----0----------|
B|-----------------------------------------------|
G|-10-----10-9-------8------7----7-7---7-7-8-----|
D|-12-12-----12-12---10-10--9-9---9-9---9--10-10-|
A|------12--------12------10---9-----9----------10
E|-----------------------------------------------|

	
e|--------0-----------0------------0~~~----------|
B|--------------------------13-------------------|
G|-10------10---12-----12---14-14----------------|
D|-12-12-----12---14-----14------14--------------|
A|------12------14--14---------------------------|
E|-----------------------------------------------|

[ Tab from: http://www.guitartabs.cc/tabs/t/the_pax_cecilia/opening_monologue_tab.html ]
e|-------0------------0--------------------------|
B|13------13------------------------------0-0----|
G|14-14-----14-10------10---9------9-------------|
D|-----14------12-12-----12-10-10---10---9-9-9---|
A|------------------12-----------10---10------9--|
E|---------------------------------------7-------|


e|------------0----------------------------------|
B|-0---------------------------------------------|
G|---7----7----7---------------------------------|
D|9-9-9---0-9---9-11-----------------------------|
A|-----9-----9----0------------------------------|
E|7----------------------------------------------|

This is all i have so far.  Everyone should check out this band, they're amazing.  This
is my first tab so let me know how it is.  I'm pretty sure its close to 100% accuracy
peas
Comments