The Paddingtons - Tommys Disease Chords & Tabs

 

Tommys Disease Chords & Tabs

The Paddingtons Chords & Tabs

Version: 1 Type: Tab

Tommys Disease Tab

Hey guys, this is a great Paddingtons song and i couldn't find the tab anywhere on the
internet so i thought i'd work it out myself, have fun and keep listening to them.

Intro:

Guitar 1: Play with fast down strokes in typical Paddingtons style

e|------------|
B|------------|
G|-10---------|
D|-10-(x64)---|
A|-8----------|
E|------------|

Guitar 2: Come in after guitar 1 has played half of it's intro


e|----------------|
B|----------------|
G|----------------|
D|-x-x-17-17------| In the last quarter of the intro copy guitar 1 but 
A|-x-x-17-17-(x4)-| transposed onto EAD. 
E|-x-x-15-15------|

Main Riff:
[ Tab from: http://www.guitartabs.cc/tabs/t/the_paddingtons/tommys_disease_tab.html ]
Guitars 1 + 2: Played again with fast down strokes

e|-----------------------------|
B|-----------------------------|
G|-----------------------------|
D|-17------16------14----------|  
A|-17-(x8)-17-(x8)-14-(x16)----|  
E|-15------14------12----------|

These chords are repeated throught the song with each guitar doing different rhythms
and the occasional string click like so...

e|--------------------------------------|
B|--------------------------------------|
G|--------------------------------------|
D|-x-x-17------x-x-16-------x-x-14------|  
A|-x-x-17-(x2)-x-x-17-(x2)--x-x-14-(x4)-|  
E|-x-x-15------x-x-14-------x-x-12------|

Thanks again, and keep watching out for new Paddingtons tab!