The Paddingtons - Loser Chords & Tabs

 

Loser Chords & Tabs

The Paddingtons Chords & Tabs

Version: 1 Type: Tab

Loser Tab

Intro

e|------------------------------|
B|------------------------------|
G|-9-11-11-12-12-12-------------|
D|-9-11-11-12-12-12-------------|
A|-7-9---9--10-10-10------------|
E|------------------------------|

e|--------------------------------|
B|--------------------------------|
G|-9------------------------------|
D|-9-9-7--------------------------|
A|-7-9-7--------------------------|
E|---7-5--------------------------|

e|------------------------------|
B|------------------------------|
G|-9-11-11-12-12-12-------------|
D|-9-11-11-12-12-12-------------|
A|-7-9---9--10-10-10------------|
E|------------------------------|

e|-------------------------------|
B|-------------------------------|
G|-------------------------------|
D|--7-9--------------------------|
A|--7-9--------------------------|
E|--5-7--------------------------|


Verse
[ Tab from: http://www.guitartabs.cc/tabs/t/the_paddingtons/loser_tab.html ]
e|-----------------------------|
B|-----------------------------|
G|-9---5-4---------------------|
D|-9---5-4---------------------| x3
A|-7---3-2---------------------|
E|-----------------------------|

e|-------------------------------|
B|-------------------------------|
G|-------------------------------|
D|--7-9--------------------------|
A|--7-9--------------------------|
E|--5-7--------------------------|


Chorus

e|------------------------------|
B|------------------------------|
G|----9-------------------------|
D|--7-9-------------------------| x3
A|--7-7-------------------------|
E|--5---------------------------|

e|-----------------------------|
B|-----------------------------|
G|-----------------------------|
D|--9--------------------------|
A|--9--------------------------|
E|--7--------------------------|


Mini Solo:

e|----------------------------------------------|
B|-------12--12-----8--8-8----7--7-7------------|
G|-9-9-----9------------------------------------|
D|----------------------------------------------|
A|----------------------------------------------|
E|----------------------------------------------|