The Paddingtons - First Comes First Chords & Tabs

 

First Comes First Chords & Tabs

The Paddingtons Chords & Tabs

Version: 1 Type: Tab

First Comes First Tab

   
Intro

e|------------------------------------------------------------------|
B|---9---9---9--10--10--10---7---7---7---7---9---7------------------|
G|-9---9---9---9---9---9---6---6---6---8---8---8--------------------|
D|------------------------------------------------------------------|
A|------------------------------------------------------------------|
E|------------------------------------------------------------------|

Intro riff played through the verse.

"Trying to find..." (0:34)
  C#m B  G#m
e|------------------------------------------------------------------|
B|-5--4--4----------------------------------------------------------|
G|-6--4--4----------------------------------------------------------|
D|-6--4--6----------------------------------------------------------|
A|-4--2--6----------------------------------------------------------|
E|-------4----------------------------------------------------------|


Same chords played for chorus.

Back to intro riff for the 2nd verse.

Another chorus.

[ Tab from: http://www.guitartabs.cc/tabs/t/the_paddingtons/first_comes_first_tab.html ]
"Trying to find.." (1:55)
   C#5              B5               G#5
e|------------------------------------------------------------------|
B|------------------------------------------------------------------|
G|-6-6-6-6-6-6-6-6--4-4-4-4-4-4-4-4---------------------------------|
D|-6-6-6-6-6-6-6-6--4-4-4-4-4-4-4-4--6-6-6-6-6-6-6-6----------------|
A|-4-4-4-4-4-4-4-4--2-2-2-2-2-2-2-2--6-6-6-6-6-6-6-6----------------|
E|-----------------------------------4-4-4-4-4-4-4-4----------------|

e|------------------------------------------------------------------|
B|------------------------------------------------------------------|
G|-6-6-6-6-6-6-6-6--4-4-4-4-4-4-4-4---------------------------------|
D|-6-6-6-6-6-6-6-6--4-4-4-4-4-4-4-4--6-6-x--6-6-x--6-6-x------------|
A|-4-4-4-4-4-4-4-4--2-2-2-2-2-2-2-2--6-6-x--6-6-x--6-6-x------------|
E|-----------------------------------4-4-x--4-4-x--4-4-x------------|

e|------------------------------------------------------------------|
B|------------------------------------------------------------------|
G|-6-6-6-6-6-6-6-6--4-4-4-4-4-4-4-4---------------------------------|
D|-6-6-6-6-6-6-6-6--4-4-4-4-4-4-4-4--6-6-6-6-6-6-6-6----------------|
A|-4-4-4-4-4-4-4-4--2-2-2-2-2-2-2-2--6-6-6-6-6-6-6-6----------------|
E|-----------------------------------4-4-4-4-4-4-4-4----------------|

e|------------------------------------------------------------------|
B|------------------------------------------------------------------|
G|-6-6-6-6-6-6-6-6--4-4-4-4-4-4-4-4---------------------------------|
D|-6-6-6-6-6-6-6-6--4-4-4-4-4-4-4-4--6-6-x--6-6-x--6-6-x------------|
A|-4-4-4-4-4-4-4-4--2-2-2-2-2-2-2-2--6-6-x--6-6-x--6-6-x------------|
E|-----------------------------------4-4-x--4-4-x--4-4-x------------|