The Paddingtons - 50 To A Chords & Tabs

 

50 To A Chords & Tabs

The Paddingtons Chords & Tabs

Version: 1 Type: Tab

50 To A Tab

Intro:

e|-5-6-8--5-6-8--5-6-8-etc--------------------------------------|
B|--------------------------------------------------------------|
G|--------------------------------------------------------------|
D|--------------------------------------------------------------|
A|--------------------------------------------------------------|
E|--------------------------------------------------------------|

Then:

e|-7-7-7-5-5-5-6------------------------------------------------|
B|--------------------------------------------------------------|
G|--------------------------------------------------------------|
D|--------------------------------------------------------------|
A|--------------------------------------------------------------|
E|--------------------------------------------------------------|


Verse:

e|--------------------------------------------------------------|
B|--------------------------------------------------------------|
G|-10-10-10-----10-10-10-10-10----------------------------------|
D|-10-10-10-----10-10-10-10-10----------------------------------|
A|-8--8--8------8--8--8--8--8-----------------------------------|
E|--------------------------------------------------------------|
[ Tab from: http://www.guitartabs.cc/tabs/t/the_paddingtons/50_to_a_tab.html ]
e|--------------------------------------------------------------|
B|--------------------------------------------------------------|
G|--------------------------------------------------------------|
D|-8-8-8-----8-8-8-8-8------------------------------------------|
A|-8-8-8-----8-8-8-8-8------------------------------------------|
E|-6-6-6-----6-6-6-6-6------------------------------------------|


Chorus:
(Can't be bothered typing the rhythm out, listen to the song)

e|--------------------------------------------------------------|
B|--------------------------------------------------------------|
G|-10---------10------------------------------------------------|
D|-10--10--8--10------------------------------------------------| x1
A|-8---10--8--8-------------------------------------------------|
E|-----8---6----------------------------------------------------|

Then this a few times:

e|--------------------------------------------------------------|
B|--------------------------------------------------------------|
G|--------10----------------------------------------------------|
D|-10--8--10----------------------------------------------------| 
A|-10--8--8-----------------------------------------------------|
E|-8---6--------------------------------------------------------|


That's pretty much it. I'll try and figure the second guitar out some time.

Tabbed by Rich Whiting - richardwhiting87@hotmail.com