The Paddingtons - 21 Chords & Tabs

 

21 Chords & Tabs

The Paddingtons Chords & Tabs

Version: 1 Type: Tab

21 Tab

Intro x2

e|------------------------------------------------------------|
B|--------------------10-10-10-/-8----------------------------|
G|-9--9--/-5-5-/-7-7--10-10-10-/-8----------------------------|
D|-10-10-/-6-6-/-8-8--10-10-10-/-8----------------------------|
A|-10-10-/-6-6-/-8-8--8--8--8--/-6----------------------------|
E|-8--8--/-4-4-/-6-6------------------------------------------|


Verse (Same as intro):

e|------------------------------------------------------------|
B|--------------------10-10-10-/-8----------------------------|
G|-9--9--/-5-5-/-7-7--10-10-10-/-8----------------------------|
D|-10-10-/-6-6-/-8-8--10-10-10-/-8----------------------------|
A|-10-10-/-6-6-/-8-8--8--8--8--/-6----------------------------|
E|-8--8--/-4-4-/-6-6------------------------------------------|



Chorus (different rhythm):

e|------------------------------------------------------------|
B|--------------------10-10-10-/-8----------------------------|
G|-9--9--/-5-5-/-7-7--10-10-10-/-8----------------------------|
D|-10-10-/-6-6-/-8-8--10-10-10-/-8----------------------------|
A|-10-10-/-6-6-/-8-8--8--8--8--/-6----------------------------|
E|-8--8--/-4-4-/-6-6------------------------------------------|


Verse again

Back to chorus

Middle bit (1:30):

e|------------------------------------------------------------|
B|--------------------10-10-10-/-8----------------------------|
G|-9--9--/-5-5-/-7-7--10-10-10-/-8----------------------------|
D|-10-10-/-6-6-/-8-8--10-10-10-/-8----------------------------|
A|-10-10-/-6-6-/-8-8--8--8--8--/-6----------------------------|
E|-8--8--/-4-4-/-6-6------------------------------------------|
[ Tab from: http://www.guitartabs.cc/tabs/t/the_paddingtons/21_tab.html ]
e|------------------------------------------------------------|
B|--------------------10-10-10-/-8----------------------------|
G|-9--9--/-5-5-/-7-7--10-10-10-/-8----------------------------|
D|-10-10-/-6-6-/-8-8--10-10-10-/-8----------------------------|
A|-10-10-/-6-6-/-8-8--8--8--8--/-6----------------------------|
E|-8--8--/-4-4-/-6-6------------------------------------------|

e|------------------------------------------------------------|
B|------------------------------------------------------------|
G|-9--9--/-5-5-/-9--9--/-5-5-/--------------------------------|
D|-10-10-/-6-6-/-10-10-/-6-6-/--------------------------------|
A|-10-10-/-6-6-/-10-10-/-6-6-/--------------------------------|
E|-8--8--/-4-4-/-8--8--/-4-4-/--------------------------------|

e|------------------------------|
B|------------------------------|
G|-9--9--9--9--9--9--9---/-5----|
D|-10-10-10-10-10-10-10--/-6----|
A|-10-10-10-10-10-10-10--/-6----|
E|-8--8--8--8--8--8--8---/-4----|

e|------------------------------|
B|------------------------------|
G|-9--9--9--9--9--9--9---/-5----|
D|-10-10-10-10-10-10-10--/-6----|
A|-10-10-10-10-10-10-10--/-6----|
E|-8--8--8--8--8--8--8---/-4----|

e|------------------------------|
B|------------------------------|
G|-9--9--9--9--9--9--9---/-5----|
D|-10-10-10-10-10-10-10--/-6----|
A|-10-10-10-10-10-10-10--/-6----|
E|-8--8--8--8--8--8--8---/-4----|

e|--------------------------|
B|--------------------------|
G|-9--9--9--9--9--9--9------|
D|-10-10-10-10-10-10-10-----|
A|-10-10-10-10-10-10-10-----|
E|-8--8--8--8--8--8--8------|


Back to chorus


End on:

e|----------------|
B|----------------|
G|-9--9--9--------|
D|-10-10-10-------|
A|-10-10-10-------|
E|-8--8--8--------|