The Others - This Is For The Poor Chords & Tabs

 

This Is For The Poor Chords & Tabs

The Others Chords & Tabs

Version: 1 Type: Bass Tab 0 ratings
1 star 2 stars 3 stars 4 stars 5 stars
comments

This Is For The Poor Bass Tab

-------------------------------------------------------------------------------
			     This Is For The Poor - The Others
-------------------------------------------------------------------------------

Tabbed By : imessyou
e-mail: jimmyloo78@hotmail.com

Tuning: standard

Pretty piss easy song to play just listen out for the subtle changes. Great song.
Come on the 853 Kamikaze stagediving club! (proud member)

Intro and verse riff

G|--------------------------------------------------------------------------|
D|---9---9---9---9---7---7---7---5------------------------------------------|
A|-7---7---7---7---5---5---5---5--------------------------------------------|
E|--------------------------------------------------------------------------|


"This is for every dissapointment..."
G|--------------------------------------------------------------------------|
D|---5---5---5---5---7---7---7---5------------------------------------------|
A|-7---7---7---7---5---5---5---5--------------------------------------------|
E|--------------------------------------------------------------------------|

"This is for anyone whose been shoved around.."
G|--------------------------------------------------------------------------|
D|---9---9---9---9---7---7---7---5------------------------------------------|
A|-7---7---7---7---5---5---5---5--------------------------------------------|
E|--------------------------------------------------------------------------|

"This is for the poor and not you rich kids..."
G|--------------------------------------------------------------------------|
D|---9---9---9---9---7---7---7---5------------------------------------------|
A|-7---7---7---7---5---5---5---5--------------------------------------------|
E|--------------------------------------------------------------------------|

Then the bass rests until the words come back in
[ Tab from: http://www.guitartabs.cc/tabs/t/the_others/this_is_for_the_poor_btab.html ]
"This is for all the ones who had to fight for it all..."
G|--------------------------------------------------------------------------|
D|---9---9---9---9---7---7---7---5------------------------------------------|
A|-7---7---7---7---5---5---5---5--------------------------------------------|
E|--------------------------------------------------------------------------|

"This is for every dissapointment..."
G|--------------------------------------------------------------------------|
D|---5---5---5---5---7---7---7---5------------------------------------------|
A|-7---7---7---7---5---5---5---5--------------------------------------------|
E|--------------------------------------------------------------------------|


"This is for the poor and not you rich kids..."
G|--------------------------------------------------------------------------|
D|---9---9---9---9---7---7---7---5------------------------------------------|
A|-7---7---7---7---5---5---5---5--------------------------------------------|
E|--------------------------------------------------------------------------|

"And not you rich kids..."
G|--------------------------------------------------------------------------|
D|---9---9---9---9---7---7---7---5------------------------------------------|
A|-7---7---7---7---5---5---5---5--------------------------------------------|
E|--------------------------------------------------------------------------|

"This is what is wrong with this town of ours..."
G|--------------------------------------------------------------------------|
D|---9---9---9---9---7---7---7---5------------------------------------------|
A|-7---7---7---7---5---5---5---5--------------------------------------------|
E|--------------------------------------------------------------------------|

"This is for every dissapointment..."
G|--------------------------------------------------------------------------|
D|---5---5---5---5---7---7---7---5------------------------------------------|
A|-7---7---7---7---5---5---5---5--------------------------------------------|
E|--------------------------------------------------------------------------|

"This is for the poor and not you rich kids..."
G|--------------------------------------------------------------------------|
D|---9---9---9---9---7---7---7---5------------------------------------------|
A|-7---7---7---7---5---5---5---5--------------------------------------------|
E|--------------------------------------------------------------------------|
Comments