The Others - Southern Glow Chords & Tabs

 

Southern Glow Chords & Tabs

The Others Chords & Tabs

Version: 1 Type: Bass Tab 0 ratings
1 star 2 stars 3 stars 4 stars 5 stars
comments

Southern Glow Bass Tab

   
 southern glow - the others
-------------------------------------------------------------------------------

Tabbed By : jonas schlechtweg
e-mail: jonasschlechtweg@hotmail.com

Tuning: standard


intro and verse and chorus
G|-------7-7-7-------------------------------------------------------------|
D|--------------5-5-5---7-7-7--3-3-3--5------------------------------------| 
A|--5-------------------------------------3-3-3-3--8---7---5-5-5-5-5-5-5-5-|
E|-------------------------------------------------------------------------|

the harder part that he shouts

G|--7-7-7-7-7-7------------------------------------------------------|
D|---------------5--7-7-7---3-3-3--3---------------------------------|
A|-------------------------------------3-3-3-3--8-7-5-5-5-5-5-5-5-5--|
E|-------------------------------------------------------------------|


after chorus thingy

moving like a southern glow  ( when he repeats that) 
G|------------------------------------------------------------------------|
D|------------------------------------------------------------------------|
A|-- 3-3-3-3------8---7--5-5-5-5-5-5-5-5----------------------------------|  
E|------------------------------------------------------------------------|
[ Tab from: http://www.guitartabs.cc/tabs/t/the_others/southern_glow_btab.html ]
 other thingy                        3x            4th time 
G|--------4-----4--------4--------|---------|----2-------------------------|
D|----5------5-----5--------5-5---|3-3------|-------3----------------------|
A|--------------------------------|---------|------------------------------|
E|--------------------------------|---------|------------------------------|


bridge part

G|---------------7--7-7---9---9-9--10-10-10----9--9-9---|
D|------------------------------------------------------| but this is played
A|------------------------------------------------------|with guitar i think
E|------------------------------------------------------|

so on  bass you can play 
G|-----7-7-7-7-------------------------------------------------------------|
D|-------------7-7-7-7--3-3-3-3--7-7-7-7---5-5-5-5-------------------------|
A|------------------------------------------------5-5-5-5--3-3-3-3--5-5-5-5|
E|-------------------------------------------------------------------------|


i made a couple of corrections srry for the wrong tab


that's it .  
questions? mail me at jonasschlechtweg@hotmail.com


| /  slide up
| \  slide down
| h  hammer-on
| p  pull-off
| ~  vibrato
| +  harmonic
| x  Mute note
========================================================================
Comments