The Others - Lackey Chords & Tabs

 

Lackey Chords & Tabs

The Others Chords & Tabs

Version: 1 Type: Bass Tab 0 ratings
1 star 2 stars 3 stars 4 stars 5 stars
comments

Lackey Bass Tab

   
lackey -the others
-------------------------------------------------------------------------------

Tabbed By : jonas schlechtweg
e-mail: jonasschlechtweg@gmail.com

Tuning:stabndard

intro part 1

G|-------------------------------------------------------------------|
D|---7-7-7-7-7-7-7-7-7-7-7-7-7--7-7-7-7---7-7-7-7--------------------|x allot
A|-------------------------------------------------------------------|
E|-------------------------------------------------------------------|

intro part 2

G|----------------------------------------------------------------------|
D|--7-7-7-7-7-7-7-7---9-9-9-9-9--5-5-5-------------------5--------------|
A|--------------------------------------7--7-7---5h7--7----7--5h7-7--7--|x8
E|----------------------------------------------------------------------|

 chorus
G|-----------------------------------------------------------------------|
D|--------------------------------------------------------5--------------|
A|-0-0-0-0-0-0-0-0---2-2-2-2-2-2-2-2---7--7-7----5h7---7----7--5h7--7-7--|x2
E|-----------------------------------------------------------------------|

just repeat the verse  2 times then play the verse veriation

verse variaton
G|------------------------------------------------------------------------|
D|---5-5-5-5-5-5-5-5---7-7-7-7-7---5-5---------------------5--------------|
A|----------------------------------------7--7-7--5h7--7-------7--5h7--7-7|2x
E|------------------------------------------------------------------------|
[ Tab from: http://www.guitartabs.cc/tabs/t/the_others/lackey_btab.html ]
then play the chorus 2 times and then the bridge


bridge
G|-----------------------------------------------------------------------|
D|--------------------------------5--------------------------------------|2x
A|--0-0-0-0--2-2-2-2---7-7-5h7-7----7--5h7-7-7---------------------------|
E|-----------------------------------------------------------------------|

G|-----------------------------------------------------------------------|
D|--------------------------------5--------------------------------------|2x
A|-0~----2~-----------7-7-5h7--7-----7-5h7-7-7---------------------------|
E|-----------------------------------------------------------------------|

play the verse variation again  4 times

then you can play that till the end or you can play the little guitar riff on bass it 
cool lol :)
G|---9\11-11-11-11----9-9-9-9-14-14--11-11----9h11--12-------------------|
D|-----------------------------------------------------------------------|
A|-----------------------------------------------------------------------|
E|-----------------------------------------------------------------------|X4

G|-----------------------------------------------------------------------|
D|--------------5--------------------------------------------------------|
A|---7--5h7--7----7-5h7-7-7----------------------------------------------|
E|-----------------------------------------------------------------------|

| /  slide up
| \  slide down
| h  hammer-on
| p  pull-off
| ~  vibrato
| +  harmonic
| x  Mute note
========================================================================
Comments