The Organ - Steven Smith Chords & Tabs

 

Steven Smith Chords & Tabs

The Organ Chords & Tabs

Version: 1 Type: Tab 0 ratings
1 star 2 stars 3 stars 4 stars 5 stars
comments

Steven Smith Tab

   
-------------------------------------------------------------------------------
			     The Organ - Steven Smith
-------------------------------------------------------------------------------
Band: The Organ
Song: Steven Smith
Album: Grab That Gun

Tabbed by: Jen
Email:jen2805@hotmail.com



Tuning:Standard

Riff 1:
e|--6-5-6-8--6-5--6-5-6-8-6-5--6-5-6-8-6-5--6-5-6-8-6-5-------------------|
B|-----------------------------------------------------6------------------|
G|------------------------------------------------------------------------|
D|------------------------------------------------------------------------|
A|------------------------------------------------------------------------|
E|------------------------------------------------------------------------|


Riff 2: 
[ Tab from: http://www.guitartabs.cc/tabs/t/the_organ/steven_smith_tab.html ]
e|------------------------8-10--------------------------------------------|
B|----8-6-6--8-6-6--8-6-6-------------------------------------------------|
G|-------7------7------7--------------------------------------------------|
D|------------------------------------------------------------------------|
A|------------------------------------------------------------------------|
E|------------------------------------------------------------------------|

Play riff 1 again:

e|--6-5-6-8--6-5--6-5-6-8-6-5--6-5-6-8-6-5--6-5-6-8-6-5-------------------|
B|-----------------------------------------------------6------------------|
G|------------------------------------------------------------------------|
D|------------------------------------------------------------------------|
A|------------------------------------------------------------------------|
E|------------------------------------------------------------------------|

Riff 3

e|666-555-888-666--666-555-101010-666--666-555-888-666-555-10101010101010--|
B|666-555-888-666--666-555-101010-666--666-555-888-666-555-10101010101010--|
G|-------------------------------------------------------------------------|
D|-------------------------------------------------------------------------|
A|-------------------------------------------------------------------------|
E|-------------------------------------------------------------------------|


| /  slide up
| \  slide down
| h  hammer-on
| p  pull-off
| ~  vibrato
| +  harmonic
| x  Mute note
============================================================================
Comments