The Organ - Love Love Love Chords & Tabs

 

Love Love Love Chords & Tabs

The Organ Chords & Tabs

Version: 1 Type: Tab

Love Love Love Tab

----------------------------------------------------------------------------
			     The Organ - Love,Love, Love
----------------------------------------------------------------------------
Band: The Organ
Song: Love, Love, Love
Album: Grab That Gun

Tabbed by: Jen
Email:jen2805@hotmail.com

This is just the main riff:

Tuning:Standard Capo Fret 3

Riff 1:

e|----------------9-9-9-8--------------------------------------------|
B|-----7-7-7-6-7----------9--7-7-7-6-7--7-7-7-1----------------------|
G|-----------------------------------------------3-------------------|
D|-------------------------------------------------------------------|
A|-------------------------------------------------------------------|
E|-------------------------------------------------------------------|

[ Tab from: http://www.guitartabs.cc/tabs/t/the_organ/love_love_love_tab.html ]
e|----------------9-9-9-8----------------------6-4---------------------|
B|-----7-7-7-6-7----------9--7-7-7-6-7--7-7-7--------------------------|
G|---------------------------------------------------------------------|
D|---------------------------------------------------------------------|
A|---------------------------------------------------------------------|
E|---------------------------------------------------------------------|

Riff 2:

e|----13-13--6-6--13--6--------------------------------------------------|
B|----13-13--6-6--13--6--------------------------------------------------|
G|----13-13--6-6--13--6--------------------------------------------------|
D|-----------------------------------------------------------------------|
A|-----------------------------------------------------------------------|x2
E|-----------------------------------------------------------------------|