The Organ - Brother Chords & Tabs

 

Brother Chords & Tabs

The Organ Chords & Tabs

Version: 1 Type: Bass Tab

Brother Bass Tab

Band: The Organ
Song: Brother
Album: "Grab That Gun"

Tabbed by: Clement


G|--------------------------------------------------------------------|
D|--7-7-7-7-7-7-7-7---------------------------------------------------|
A|-------------------3-3-3-3-3-3-3-3--8-8-8-8-8-8-8-8--5-5-5-5-5-5-5--|
E|--------------------------------------------------------------------|


here we go
they’re back again
look alive , warn your friends
we are warm and we are safe
enjoy it while you can before
things change

G|--------------------------------------------------------------------|
D|--7-7-7-7-7-7-7-7---------------------------------------------------|
A|-------------------3-3-3-3-3-3-3-3--8-8-8-8-8-8-8-8--5-5-5-5-5-5-5--|
E|--------------------------------------------------------------------|


we have got to take cover,
brother
we have got to take cover,
brother

G|--------------------------------------------------------------------|
D|--------------------------------------------------------------------|
A|--------------------------------------------------------------------|
E|--5-5-5-5-/-13-13-13-13-10-10-10-/-13-\-10-/-13---------------------|


lie down in a field if you can
look at the night sky
oh, where does it end?
sometimes it hurts when you
care about me
but it’s going to hurt more when
they take you away from me

G|--------------------------------------------------------------------|
D|--7-7-7-7-7-7-7-7---------------------------------------------------|
A|-------------------3-3-3-3-3-3-3-3--8-8-8-8-8-8-8-8--5-5-5-5-5-5-5--|
E|--------------------------------------------------------------------|


we have go to take cover, brother
we have got to take cover, brother

G|--------------------------------------------------------------------|
D|--------------------------------------------------------------------|
A|--------------------------------------------------------------------|
E|--5-5-5-5-/-13-13-13-13-10-10-10-/-13-\-10-/-13---------------------|

[ Tab from: http://www.guitartabs.cc/tabs/t/the_organ/brother_btab.html ]
here we go again
oh midnight knocks!
oh explosions!
maybe it’s all made up in our heads
this happens to me when i’m bored
or depressed

G|--------------------------------------------------------------------|
D|--7-7-7-7-7-7-7-7---------------------------------------------------|
A|-------------------3-3-3-3-3-3-3-3--8-8-8-8-8-8-8-8--5-5-5-5-5-5-5--|
E|--------------------------------------------------------------------|

here is the best part of the song
where i admit that i might be wrong
because if they are good and if
they are right
then they’ll have their rapture one
of these nights

G|--------------------------------------------------------------------|
D|--------------------------------------------------------------------|
A|--8-8-8-8-8-8-8-8-8-8-8--5-5-5-5-5-5-5-5-5-5-/-12-12-12-12-12-12-12-|
E|--------------------------------------------------------------------|

G|-----------------------------------------|
D|-----------------------------------------|
A|-12-12-12--------------10-10-10-10-10----|
E|-----------8-8-8-8-8-8-------------------|


we have go to take cover, brother
we have got to take cover, brother

G|--------------------------------------------------------------------|
D|--------------------------------------------------------------------|
A|--------------------------------------------------------------------|
E|--5-5-5-5-/-13-13-13-13-10-10-10-/-13-\-10-/-13---------------------|


ere is the best part of the song
where i admit that i might be wrong
because if they are good and if
they are right
then they’ll have their rapture one
of these nights
but if they are wrong...

G|--------------------------------------------------------------------|
D|--------------------------------------------------------------------|
A|--8-8-8-8-8-8-8-8-8-8-8--5-5-5-5-5-5-5-5-5-5-/-12-12-12-12-12-12-12-|
E|--------------------------------------------------------------------|

G|-----------------------------------------|
D|-----------------------------------------|
A|-12-12-12--------------10-10-10-10-10----|
E|-----------8-8-8-8-8-8-------------------|

G|-----|
D|-----|
A|--8--|
E|-----|


any comments or corrections: curefaith@hotmail.fr