The North Mississippi Allstars - Sugartown Chords & Tabs

 

Sugartown Chords & Tabs

The North Mississippi Allstars Chords & Tabs

Version: 1 Type: Bass Tab 0 ratings
1 star 2 stars 3 stars 4 stars 5 stars
comments

Sugartown Bass Tab

Artist: The North Mississippi Allstars
Song:   Sugartown
Album:  Phantom 51

Transcribed by: William Fears

0:00-0:21 - Intro
                Repeat X6
G|-------------| ---------------------------- |-------------|
D|-------------|.----------------------------.|-------------|
A|-------------|.1---------------------------.|1------------|
E|1---3--1--3--| ----3-1-3-1-3--1---3--1--3-- |----3-1-3-1-3|

0:21-0:31 - Riff A
                     
G|----------------|
D|----------------|
A|----------------|
E|3----3----3----3|


0:31-0:52 - Riff B Repeat X2.
(/5 = Slide up to the 5th fret)
(3\1 = Start of the 3rd fret and slide down to the 1st fret)
[ Tab from: http://www.guitartabs.cc/tabs/t/the_north_mississippi_allstars/sugartown_btab.html ]
G|----------------------------------| /5-3-------------- |
D|----------------------------------|.-------5-3--------.|
A|3---1--3---1--3--3---1--3---1-----|.-----------5-3\1--.|
E|-------------------------------3--| -----------------3 |

Play Riff A 0:52 - 1:03.
Play Riff B 1:03 - 1:23.

1:23-1:45

            Repeat X3.
G|---------| ------------|------------|------------|-------------|
D|---------|.------------|------------|------------|------------.|
A|---------|.------------|------------|------------|------------.|
E|0--1--2--| 3--3--3--3--|3--3--3--3--|3--3--3--3--|3--0--1--2-- |

1:45-2:45 

This section starts slow, speeds up, then slows back down.

G|---------------------------|
D|---------------------------|
A|---1--0--------------------|
E|3--------4--3--0--1--2--3--|
              ^
Stop here on the last repeat.


Play Riff B 2:46 - 3:00 (Do not play the last measure on the second repeat)

Play Riff A 3:00 - 3:15
Play Riff B 3:15 - 3:47 (The last measure of this riff is repeated till the end of the song)
Comments