The Network - Roshambo Chords & Tabs

 

Roshambo Chords & Tabs

The Network Chords & Tabs

Version: 1 Type: Tab 2 ratings
1 star 2 stars 3 stars 4 stars 5 stars
comments

Roshambo Tab

Title: Roshambo
Artist: The Network
Album: Money Money 20 20
Tuning: Normal

This part is pretty much the whole song other than the chorus and the solo.
Verse:
e-------3-------------7-------------
a-------5-------------9-------------
d------------------------------------
g------------------------------------
b------------------------------------
e------------------------------------
I don’t believe in the apocalypse...

Chorus:
e------------------------------------
a----------3------------------------
d----------5-------------2----------   x3
g------------------------4----------
b------------------------------------
e------------------------------------
I don’t believe I asked your opinion...
[ Tab from: http://www.guitartabs.cc/tabs/t/the_network/roshambo_tab.html ]
e-----------------------------------
a-------7------5------3-------------
d-------9------7------5--------------
g------------------------------------
b------------------------------------
e------------------------------------
All I really believe in is you...

Solo:
e------3------------------3---2------------------2—3---------------------3—2-----------------2—3--
a------------3-----0-----------------3—0------------------3—0--------------------3----0--------------
d------------------------------------------------------------------------------------------------------------
g-----------------------------------------------------------------------------------------------------------
b------------------------------------------------------------------------------------------------------------
e------------------------------------------------------------------------------------------------------------

Verse
Chorus
Verse
Chorus
Solo
Chorus
Comments