The Neckbones - Crackwhore Blues Chords & Tabs

 

Crackwhore Blues Chords & Tabs

The Neckbones Chords & Tabs

Version: 1 Type: Tab 0 ratings
1 star 2 stars 3 stars 4 stars 5 stars
comments

Crackwhore Blues Tab

The Neckbones are a band on Fat Possum Records
check out www.fatpossum.com for more info on them

----------------------------------------------------------------


The Neckbones - Crackwhore Blues
By:Steffan Hofland
Email:steffan_ramone@hotmail.com

Guitar 1: Left Channel
Main part:
this is just practically what he plays te whole song:
e------------------------------------------------------|
b------------------------------------------------------|
g-----7-5----------------------------------------------|
d-7-7-7-5-7-7-5-5-7-5----------------------------------|
a-7-7-5-3-7-7-5-5-7-5----------------------------------|
e-5-5-----5-5-3-3-5-3----------------------------------|

I know why she do what she do part
e-------------------------------------------------|
b-------------------------------------------------|
g------------------7bbbb--------------------------|
d--999999999999999-7bbbb--------------------------|
a--999999999999999-5bbbb--------------------------|
e--777777777777777--------------------------------|

Guitar 2: Right Channel

main part:
this is just what he plays in the beginning, from then
he just plays around with this things but you'll get it
if you listen to the song
[ Tab from: http://www.guitartabs.cc/tabs/t/the_neckbones/crackwhore_blues_tab.html ]
e------------------------------------------------------|
b------------------------------------------------------|
g-----7-5--5^6-6-5-5-6-5-----7-5-----------------------|
d-7-7-7-5----------------7-7-7-5-7-7-5-5-7-5-----------|
a-7-7--------------------7-7-----7---------------------|
e------------------------------------------------------|

e------------------------------------------------------|
b----------------7b7b7b7b------------------------------|
g-----7-5--5^6-6-7b7b7b7b-5-----7-5--------------------|
d-7-7-7-5-------------------7-7-7-5-7-7-5-5-7-5--------|
a-7-7-----------------------7-7-----7------------------|
e------------------------------------------------------|

I know why she do what she do part
e-------------------------------------------------|
b-------------------------------------------------|
g------------------7bbbb--------------------------|
d--999999999999999-7bbbb--------------------------|
a--999999999999999-5bbbb--------------------------|
e--777777777777777--------------------------------|

Well, there are some solos, i'm not in the mood to tab them
now, i'm not even sure if this all is right.
But anyway email me and send me some beers then I just might
tab the solos for you.
Comments