The National - Conversation 16 Chords & Tabs

 

Conversation 16 Chords & Tabs

The National Chords & Tabs

Version: 1 Type: Bass Tab 0 ratings
1 star 2 stars 3 stars 4 stars 5 stars
comments

Conversation 16 Bass Tab

The National - Conversation 16

Verse played fast, Starts at "I live on coffee and flowers" first
G|------------------------------------------------------------|
D|------------------------------------------------------------|
A|-2-2-2-2-2-2-2-2-2-2-2-2-2-0-0-0-0-0-0-0-0-0-0-0-0-0-0-0----|
E|------------------------------------------------------------|

G|------------------------------------------------------------|
D|------------------------------------------------------------|
A|-7-7-7-7-7-7-7-7-7-7-7-7-7-0-0-0-0-0-0-0-0-0-0-0-0-0-0-0----|
E|------------------------------------------------------------|
Follow guitar for timing

Pre Chorus / Break "Now we'll leave the silver city"
[ Tab from: http://www.guitartabs.cc/tabs/t/the_national/conversation_16_btab.html ]
G|------------------------------------------------------------|
D|------------------------------------------------------------|
A|-2---5------------------------------------------------------| x4
E|---5---3----------------------------------------------------|

Chorus "I was afraid I'd eat your brains"

G|------------------------------------------------------------|
D|------------------------------------------------------------|
A|-5-5-5-5--2-2-2-2-------------------------------------------|
E|-------------------2-2-2-2--5-5-5-5-------------------------|

Outro Same as chorus
G|-----------------------------------------------------------|
D|-----------------------------------------------------------|
A|-5-5-5-5--2-2-2-2-------------------------------------5----|
E|-------------------2-2-2-2--5-5-5-5-5-5-5-5-5-5-5-5-5------|
                                        ^ Hold A on final run.

Order -
Verse
Break
Verse
Break
Chorus
Verse
Break
Chorus/Outro
Comments