The National - Apartment Story Chords & Tabs

 

Apartment Story Chords & Tabs

The National Chords & Tabs

Version: 3 Type: Tab 0 ratings
1 star 2 stars 3 stars 4 stars 5 stars
comments

Apartment Story Tab

-----------------------------------------------------------------
Apartment Story - The National
-----------------------------------------------------------------

Tuning: EADGBE - Standard

Key:
/ - slide
x - Mute note

-----------------------------------------------------------------------------



e|--------------------------------------------------------------------------|
B|--------------------------------------------------------------------------|
G|--4-------4---4-----4---4------4--4---------------------------------------|
D|--4---4---4---4--4--4---4---4--4--4--2---2---2---2---2--2---2---2--2--2---|
A|--2---2---2---2--2--2---2---2--2--2--2---2---2---2---2--2---2---2--2--2-4/|
E|--x---x---x---x--x--x---x---x--x--x--4---4---4---4---4--4---4---4--4--4---|



e|--------------------------------------------------------------------------|
B|-------------------------------------0-------0---0------0---0------0--0---|
G|--4-------4---4-----4---4------4--4--1---1---1---1---1--1---1---1--1--1---|
D|--4---4---4---4--4--4---4---4--4--4--2---2---2---2---2--2---2---2--2--2---|
A|6-6---6---6---6--6--6---6---6--6--6--2---2---2---2---2--2---2---2--2--2---|
E|--x---x---x---x--x--x---x---x--x--x--0---0---0---0---0--0---0---0--0--0---|

  Be still for a second while I try and try to pin your flowers on.

e|--------------------------------------------------------------------------|
B|--------------------------------------------------------------------------|
G|--4-------4---4-----4---4------4--4---------------------------------------|
D|--4---4---4---4--4--4---4---4--4--4--2---2---2---2---2--2---2---2--2--2---|
A|--2---2---2---2--2--2---2---2--2--2--2---2---2---2---2--2---2---2--2--2-4/|
E|--x---x---x---x--x--x---x---x--x--x--4---4---4---4---4--4---4---4--4--4---|



e|--------------------------------------------------------------------------|
B|-------------------------------------0-------0---0------0---0------0--0---|
G|--4-------4---4-----4---4------4--4--1---1---1---1---1--1---1---1--1--1---|
D|--4---4---4---4--4--4---4---4--4--4--2---2---2---2---2--2---2---2--2--2---|
A|6-6---6---6---6--6--6---6---6--6--6--2---2---2---2---2--2---2---2--2--2---|
E|--x---x---x---x--x--x---x---x--x--x--0---0---0---0---0--0---0---0--0--0---|

  Can you carry my drink I have everything else, I can tie my tie all by 
  myself,  

e|--------------------------------------------------------------------------|
B|--------------------------------------------------------------------------|
G|--4-------4---4-----4---4------4--4---------------------------------------|
D|--4---4---4---4--4--4---4---4--4--4--2---2---2---2---2--2---2---2--2--2---|
A|--2---2---2---2--2--2---2---2--2--2--2---2---2---2---2--2---2---2--2--2-4/|
E|--x---x---x---x--x--x---x---x--x--x--4---4---4---4---4--4---4---4--4--4---|

  I'm getting tired, I'm forgetting why.

e|--------------------------------------------------------------------------|
B|-------------------------------------0-------0---0------0---0------0--0---|
G|--4-------4---4-----4---4------4--4--1---1---1---1---1--1---1---1--1--1---|
D|--4---4---4---4--4--4---4---4--4--4--2---2---2---2---2--2---2---2--2--2---|
A|6-6---6---6---6--6--6---6---6--6--6--2---2---2---2---2--2---2---2--2--2---|
E|--x---x---x---x--x--x---x---x--x--x--0---0---0---0---0--0---0---0--0--0---|

  Oh were so disarming darling, everything we did believe,

e|--------------------------------------------------------------------------|
B|--------------------------------------------------------------------------|
G|--4-------4---4-----4---4------4--4---------------------------------------|
D|--4---4---4---4--4--4---4---4--4--4--6---6---6---6---6--6---6---6--6--6---|
A|--6---6---6---6--6--6---6---6--6--6--7---7---7---7---7--7---7---7--7--7---|
E|--7---7---7---7--7--7---7---7--7--7--4---4---4---4---4--4---4---4--4--4---|

  Is diving, diving, diving, diving off the balcony.

e|--------------------------------------------------------------------------|
B|--------------------------------------------------------------------------|
G|--4-------4---4-----4---4------4--4---------------------------------------|
D|--4---4---4---4--4--4---4---4--4--4--2---2---2---2---2--2---2---2--2--2---|
A|--2---2---2---2--2--2---2---2--2--2--2---2---2---2---2--2---2---2--2--2---|
E|--x---x---x---x--x--x---x---x--x--x--4---4---4---4---4--4---4---4--4--4---|

  Tired and wired we ruin too easy,

e|----------2---2-----2---2------2--2--0-------0---0------0---0------0--0---|
B|--0-------0---0-----0---0------0--0--0-------0---0------0---0------0--0---|
G|--4---4---4---4--4--4---4---4--4--4--4---4---4---4---4--4---4---4--4--4---|
D|--4---4---4---4--4--4---4---4--4--4--4---4---4---4---4--4---4---4--4--4---|
A|--x---x---x---x--x--x---x---x--x--x--x---x---x---x---x--x---x---x--x--x---|
E|--x---x---x---x--x--x---x---x--x--x--x---x---x---x---x--x---x---x--x--x---|

  Sleep in our clothes and wait for winter to leave.

e|------2-------2-----2-------2-----2--2-------0---0------0---0------0--0-x-|
B|--4---4---4---4--4--4---4---4--4--4--5---5---5---5---5--5---5---5--5--5-x-|
G|--3---3---3---3--3--3---3---3--3--3--4---4---4---4---4--4---4---4--4--4-x-|
D|--1---1---1---1--1--1---1---1--1--1--2---2---2---2---2--2---2---2--2--2-x-|
A|-----------------------------------------x-----------x----------x---------|
E|-----------------------------------------x-----------x----------x---------|

  Hold ourselves together with our arms around the stereo,

e|--------------------------------------------------------------------------|
B|--------------------------------------------------------------------------|
G|--------------------------------------------------------------------------|
D|--4---4---4---4--4--4---4---4--4--4--2---2---2---2---2--2---2---2--2--2---|
A|--2---2---2---2--2--2---2---2--2--2--2---2---2---2---2--2---2---2--2--2-4/|
E|--x---x---x---x--x--x---x---x--x--x--4---4---4---4---4--4---4---4--4--4---|

  For hours.

e|--------------------------------------------------------------------------|
B|-------------------------------------0-------0---0------0---0------0--0---|
G|--4-------4---4-----4---4------4--4--1---1---1---1---1--1---1---1--1--1---|
D|--4---4---4---4--4--4---4---4--4--4--2---2---2---2---2--2---2---2--2--2---|
A|6-6---6---6---6--6--6---6---6--6--6--2---2---2---2---2--2---2---2--2--2---|
E|--x---x---x---x--x--x---x---x--x--x--0---0---0---0---0--0---0---0--0--0---|

  While it sings to itself or whatever it does, When it sings to itself of 
  its long lost loves.

e|--------------------------------------------------------------------------|
B|--------------------------------------------------------------------------|
G|--4-------4---4-----4---4------4--4---------------------------------------|
D|--4---4---4---4--4--4---4---4--4--4--6---6---6---6---6--6---6---6--6--6---|
A|--6---6---6---6--6--6---6---6--6--6--7---7---7---7---7--7---7---7--7--7---|
E|--7---7---7---7--7--7---7---7--7--7--4---4---4---4---4--4---4---4--4--4---|

  I'm getting tired, I'm forgetting why.

e|--------------------------------------------------------------------------|
B|--------------------------------------------------------------------------|
G|--4-------4---4-----4---4------4--4---------------------------------------|
D|--4---4---4---4--4--4---4---4--4--4--2---2---2---2---2--2---2---2--2--2---|
A|--2---2---2---2--2--2---2---2--2--2--2---2---2---2---2--2---2---2--2--2---|
E|--x---x---x---x--x--x---x---x--x--x--4---4---4---4---4--4---4---4--4--4---|

  Tired and wired we ruin too easy,
[ Tab from: http://www.guitartabs.cc/tabs/t/the_national/apartment_story_tab_ver_3.html ]
e|----------2---2-----2---2------2--2--0-------0---0------0---0------0--0---|
B|--0-------0---0-----0---0------0--0--0-------0---0------0---0------0--0---|
G|--4---4---4---4--4--4---4---4--4--4--4---4---4---4---4--4---4---4--4--4---|
D|--4---4---4---4--4--4---4---4--4--4--4---4---4---4---4--4---4---4--4--4---|
A|--x---x---x---x--x--x---x---x--x--x--x---x---x---x---x--x---x---x--x--x---|
E|--x---x---x---x--x--x---x---x--x--x--x---x---x---x---x--x---x---x--x--x---|

  Sleep in our clothes and wait for winter to leave.

e|------2-------2-----2-------2-----2--2-------0---0------0---0------0--0---|
B|--4---4---4---4--4--4---4---4--4--4--5---5---5---5---5--5---5---5--5--5---|
G|--3---3---3---3--3--3---3---3--3--3--4---4---4---4---4--4---4---4--4--4---|
D|--1---1---1---1--1--1---1---1--1--1--2---2---2---2---2--2---2---2--2--2---|
A|-----------------------------------------x-----------x----------x---------|
E|-----------------------------------------x-----------x----------x---------|

  But Ill be with you behind the couch when they come,

e|----------2---2-----2---2------2--2--0-------0---0------0---0------0--0---|
B|--0-------0---0-----0---0------0--0--0-------0---0------0---0------0--0---|
G|--4---4---4---4--4--4---4---4--4--4--4---4---4---4---4--4---4---4--4--4---|
D|--4---4---4---4--4--4---4---4--4--4--4---4---4---4---4--4---4---4--4--4---|
A|--x---x---x---x--x--x---x---x--x--x--x---x---x---x---x--x---x---x--x--x---|
E|--x---x---x---x--x--x---x---x--x--x--x---x---x---x---x--x---x---x--x--x---|

  On a different day, just like this one.

e|------2-------2-----2-------2-----2--2-------0---0------0---0------0--0-x-|
B|--4---4---4---4--4--4---4---4--4--4--5---5---5---5---5--5---5---5--5--5-x-|
G|--3---3---3---3--3--3---3---3--3--3--4---4---4---4---4--4---4---4--4--4-x-|
D|--1---1---1---1--1--1---1---1--1--1--2---2---2---2---2--2---2---2--2--2-x-|
A|-----------------------------------------x-----------x----------x---------|
E|-----------------------------------------x-----------x----------x---------|

  Well stay inside 'til somebody finds us, do whatever the TV tells us,

e|--------------------------------------------------------------------------|
B|--------------------------------------------------------------------------|
G|--------------------------------------------------------------------------|
D|--4---4---4---4--4--4---4---4--4--4--2---2---2---2---2--2---2---2--2--2---|
A|--2---2---2---2--2--2---2---2--2--2--2---2---2---2---2--2---2---2--2--2-4/|
E|--x---x---x---x--x--x---x---x--x--x--4---4---4---4---4--4---4---4--4--4---|

  Stay inside our rosy minded fuzz for days.

e|--------------------------------------------------------------------------|
B|-------------------------------------0-------0---0------0---0------0--0---|
G|--4-------4---4-----4---4------4--4--1---1---1---1---1--1---1---1--1--1---|
D|--4---4---4---4--4--4---4---4--4--4--2---2---2---2---2--2---2---2--2--2---|
A|6-6---6---6---6--6--6---6---6--6--6--2---2---2---2---2--2---2---2--2--2---|
E|--x---x---x---x--x--x---x---x--x--x--0---0---0---0---0--0---0---0--0--0---|

  Well stay inside 'til somebody finds us, do whatever the TV tells us,

e|--------------------------------------------------------------------------|
B|--------------------------------------------------------------------------|
G|--4-------4---4-----4---4------4--4---------------------------------------|
D|--4---4---4---4--4--4---4---4--4--4--2---2---2---2---2--2---2---2--2--2---|
A|--2---2---2---2--2--2---2---2--2--2--2---2---2---2---2--2---2---2--2--2-4/|
E|--x---x---x---x--x--x---x---x--x--x--4---4---4---4---4--4---4---4--4--4---|

  Stay inside our rosy minded fuzz.

e|--------------------------------------------------------------------------|
B|------------------------------------0-------0---0------0---0------0--0---|
G|--4-------4---4-----4---4------4--4--1---1---1---1---1--1---1---1--1--1---|
D|--4---4---4---4--4--4---4---4--4--4--2---2---2---2---2--2---2---2--2--2---|
A|6-6---6---6---6--6--6---6---6--6--6--2---2---2---2---2--2---2---2--2--2---|
E|--x---x---x---x--x--x---x---x--x--x--0---0---0---0---0--0---0---0--0--0---|

  So worry not, all things are well,

e|----------2---2-----2---2------2--2--0-------0---0------0---0------0--0---|
B|--0-------0---0-----0---0------0--0--0-------0---0------0---0------0--0---|
G|--4---4---4---4--4--4---4---4--4--4--4---4---4---4---4--4---4---4--4--4---|
D|--4---4---4---4--4--4---4---4--4--4--4---4---4---4---4--4---4---4--4--4---|
A|--x---x---x---x--x--x---x---x--x--x--x---x---x---x---x--x---x---x--x--x---|
E|--x---x---x---x--x--x---x---x--x--x--x---x---x---x---x--x---x---x--x--x---|

  We'll be alright, we'll have our looks and perfume.

e|------2-------2-----2-------2-----2--2-------0---0------0---0------0--0-x-|
B|--4---4---4---4--4--4---4---4--4--4--5---5---5---5---5--5---5---5--5--5-x-|
G|--3---3---3---3--3--3---3---3--3--3--4---4---4---4---4--4---4---4--4--4-x-|
D|--1---1---1---1--1--1---1---1--1--1--2---2---2---2---2--2---2---2--2--2-x-|
A|-----------------------------------------x-----------x----------x---------|
E|-----------------------------------------x-----------x----------x---------|

  Well stay inside 'til somebody finds us, do whatever the TV tells us,

e|--------------------------------------------------------------------------|
B|--------------------------------------------------------------------------|
G|--4-------4---4-----4---4------4--4---------------------------------------|
D|--4---4---4---4--4--4---4---4--4--4--2---2---2---2---2--2---2---2--2--2---|
A|--2---2---2---2--2--2---2---2--2--2--2---2---2---2---2--2---2---2--2--2-4/|
E|--x---x---x---x--x--x---x---x--x--x--4---4---4---4---4--4---4---4--4--4---|
  Stay inside our rosy minded fuzz.

e|--------------------------------------------------------------------------|
B|-------------------------------------0-------0---0------0---0------0--0---|
G|--4-------4---4-----4---4------4--4--1---1---1---1---1--1---1---1--1--1---|
D|--4---4---4---4--4--4---4---4--4--4--2---2---2---2---2--2---2---2--2--2---|
A|6-6---6---6---6--6--6---6---6--6--6--2---2---2---2---2--2---2---2--2--2---|
E|--x---x---x---x--x--x---x---x--x--x--0---0---0---0---0--0---0---0--0--0---|

  So worry not, all things are well,

e|----------2---2-----2---2------2--2--0-------0---0------0---0------0--0---|
B|--0-------0---0-----0---0------0--0--0-------0---0------0---0------0--0---|
G|--4---4---4---4--4--4---4---4--4--4--4---4---4---4---4--4---4---4--4--4---|
D|--4---4---4---4--4--4---4---4--4--4--4---4---4---4---4--4---4---4--4--4---|
A|--x---x---x---x--x--x---x---x--x--x--x---x---x---x---x--x---x---x--x--x---|
E|--x---x---x---x--x--x---x---x--x--x--x---x---x---x---x--x---x---x--x--x---|

  We'll be alright, we'll have our looks and perfume on.

e|------2-------2-----2-------2-----2--2-------0---0------0---0------0--0---|
B|--4---4---4---4--4--4---4---4--4--4--5---5---5---5---5--5---5---5--5--5---|
G|--3---3---3---3--3--3---3---3--3--3--4---4---4---4---4--4---4---4--4--4---|
D|--1---1---1---1--1--1---1---1--1--1--2---2---2---2---2--2---2---2--2--2---|
A|-----------------------------------------x-----------x----------x---------|
E|-----------------------------------------x-----------x----------x---------|



e|----------2---2-----2---2------2--2--0-------0---0------0---0------0--0---|
B|--0-------0---0-----0---0------0--0--0-------0---0------0---0------0--0---|
G|--4---4---4---4--4--4---4---4--4--4--4---4---4---4---4--4---4---4--4--4---|
D|--4---4---4---4--4--4---4---4--4--4--4---4---4---4---4--4---4---4--4--4---|
A|--x---x---x---x--x--x---x---x--x--x--x---x---x---x---x--x---x---x--x--x---|
E|--x---x---x---x--x--x---x---x--x--x--x---x---x---x---x--x---x---x--x--x---|



e|------2-------2-----2-------2-----2--2-------0---0------0---0------0--0---|
B|--4---4---4---4--4--4---4---4--4--4--5---5---5---5---5--5---5---5--5--5---|
G|--3---3---3---3--3--3---3---3--3--3--4---4---4---4---4--4---4---4--4--4---|
D|--1---1---1---1--1--1---1---1--1--1--2---2---2---2---2--2---2---2--2--2---|
A|-----------------------------------------x-----------x----------x---------|
E|-----------------------------------------x-----------x----------x---------|




e|-0---------------------------------|
B|-0---------------------------------|
G|-4---------------------------------|
D|-4---------------------------------|
A|-2---------------------------------|
E|-----------------------------------|

Comments