The Music - The Truth Is No Words Chords & Tabs

 

The Truth Is No Words Chords & Tabs

The Music Chords & Tabs

Version: 4 Type: Tab 0 ratings
1 star 2 stars 3 stars 4 stars 5 stars
comments

The Truth Is No Words Tab

   
The Truth is No Words 
by The Music

Tabbed by Jason aka bubu

Note: There are some rhythm tabbing. Eighth notes are placed adjacent to one
another and quarter notes are separated by - 


Intro
E|--------------------------|----------------|
B|--------------------------|----------------|
G|--------------------------|----------------|
D|----------------------7h9-|-repeat 7 times-|
A|------5----------5/7h9----|----------------|
E|-5h77---77--5h7-----------|----------------|

Verse 1 
E|----------------|----------------|----------------|------------------|
B|----------------|----------------|----------------|------------------|
G|----------------|----------------|----------------|-----7-7------9-9-|
D|----------------|----------------|----------------|-----7-7------9-9-|
A|-----5----------|-----5----------|-----5----------|-----5-5------7-7-|
E|-5h7---7--5h7-7-|-5h7---7--5h7-7-|-5h7---7--5h7-7-|-5h7------5/7-----|
Repeat

Pre-Chorus
E|--------------------------|----------------|------------------|
B|--------------------------|----------------|------------------|
G|--------------------------|----------------|-----7-7------9-9-|
D|----------------------7h9-|-repeat 2 times-|-----7-7------9-9-|
A|------5----------5/7h9----|----------------|-----5-5------7-7-|
E|-5h77---77--5h7-----------|----------------|-5h7------5/7-----|
Repeat 

Chorus
E|------------------------|-----------------|------------------|
B|------------------------|-----------------|------------------|
G|------------------------|-----------------|------------------|
D|-7/9--9/7--7/4-4-4-4--4-|-repeat 2 times--|-7/9--9/7-7-2-2-4-|
A|-7/9--9/7--7/4-4-4-4--4-|-----------------|-7/9--9/7-7-2-2-4-|
E|-5/7--7/5--5/2-2-2-2--2-|-----------------|-5/7--7/5-5-0-0-2-|

Post Chorus
Guitar 1
E|--------------------------|----------------|
B|--------------------------|----------------|
G|--------------------------|----------------|
D|----------------------7h9-|-repeat 3 times-|
A|------5----------5/7h9----|----------------|
E|-5h77---77--5h7-----------|----------------|

Guitar 2
E|--------------------------|
B|--------------------------|
G|-9-7----9-7----9-7----9-7-|
D|--------------------------|
A|--------------------------|
E|--------------------------|
[ Tab from: http://www.guitartabs.cc/tabs/t/the_music/the_truth_is_no_words_tab_ver_4.html ]
Verse 2 
E|---------------------|---------------------|---------------------|------------------|
B|---------------------|---------------------|---------------------|------------------|
G|---------------------|---------------------|---------------------|-----7-7------9-9-|
D|-----0h2-4----0h2-4--|-----0h2-4----0h2-4--|-----0h2-4----0h2-4--|-----7-7------9-9-|
A|-2-22------2-2-------|-2-22------2-2-------|-2-22------2-2-------|-----5-5------7-7-|
E|---------------------|---------------------|---------------------|-5h7------5/7-----|
Repeat

Chorus

Solo
E|-------------------------------------------|
B|-------------------------------------------|
G|-7/9-7-6-7-4-6-2-4--2h4-4-2h4-4-2h4-4-44-4-|
D|-------------------------------------------|
A|-------------------------------------------|
E|-------------------------------------------|

E|--------------------------------------------|
B|--------------------------------------------|
G|-4/6-7-9/11--11-12-9-11-7-9---12-11-9-11-11-|
D|--------------------------------------------|
A|--------------------------------------------|
E|--------------------------------------------|

E|------------------------------------|
B|------------------------------------|
G|-12/14-12-11-12-11-9-11-7/9-7-6-2/4-|
D|------------------------------------|
A|------------------------------------|
E|------------------------------------|	

Riff
E|---------------------------|-----------------|
B|---------------------------|-----------------|
G|---------------------------|-----------------|
D|-----------------------7h9-|-repeat 11 times-|
A|------5----------5/7h9-----|-----------------|
E|-5h77---7-7--5h7-----------|-----------------|

Verse 3
E|-------------------|----------------|
B|-------------------|----------------|
G|------7------------|----------------|
D|-7h99---9--7h9-7h9-|-repeat 7 times-|
A|-------------------|----------------|
E|-------------------|----------------|

E|------------|----------------|-----------------|
B|------------|----------------|-----------------|
G|------------|----------------|-7/9-7-6-7-6-----|
D|-7/9-99-9-9-|-repeat 2 times-|-------------7/9-|
A|------------|----------------|-----------------|
E|------------|----------------|-----------------|

E|------------|----------------|---------------------------------|
B|------------|----------------|---------------------------------|
G|------------|----------------|-----6-7-6-7-7/9-7-6-7-6---------|
D|-7/9-99-9-9-|-repeat 1 times-|-7/9---------------------7/9-7/9-|
A|------------|----------------|---------------------------------|
E|------------|----------------|---------------------------------|
Comments