The Music - Getaway Chords & Tabs

 

Getaway Chords & Tabs

The Music Chords & Tabs

Version: 4 Type: Tab 0 ratings
1 star 2 stars 3 stars 4 stars 5 stars
comments

Getaway Tab

The Music
Getaway
Drop D Tuning

e-|-----------------------10----------------|
B-|-----6----8----9-8-----------------------|
G-|--0-----0----0------0--------------------|
D-|-----------------------------------------|
A-|-----------------------------------------|
D-|-----------------------------------------|

verse/chorus
[ Tab from: http://www.guitartabs.cc/tabs/t/the_music/getaway_tab_ver_4.html ]
Heavy distortion no contour
e-|-----------------------------------------|
B-|-----------------------------------------|
G-|-----------------------------------------|
D-|--5--------3--------1--------3-----------|
A-|--5--------3--------1--------3-----------|
D-|--5-x16----3-x16----1-x16----3-x16-------|

outro
e-|-----------------------------------------|
B-|-----------------------------------------|
G-|--3p2-0---------3p2-0--------------------|
D-|--------3-0-----------3p0----------------|
A-|------------x2------------3-x2-----------|
D-|-----------------------------------------|

e-|-----------------------------------------|
B-|-----------------------------------------|
G-|--3p2-0-----------3p2-0------------------|
D-|--------3p0-------------3p0--------------|
A-|------------1-x2--------------3-x2-------|
D-|-----------------------------------------|
Comments