The Music - Getaway Chords & Tabs

 

Getaway Chords & Tabs

The Music Chords & Tabs

Version: 3 Type: Tab 0 ratings
1 star 2 stars 3 stars 4 stars 5 stars
comments

Getaway Tab

Drop D tuning
intro
--------------------11--
---9---10---10--7-------
-8---8----8-------8-----
------------------------
------------------------
------------------------ X 24

main riff (guitar 1, medium distortion) (drop D tuning)
---------------------------------
---------------------------------
---------------------------------
---------------------------------
-5-5-5-5-5-5-5-5-5-5-5-5-5-5-5-5-
-5-5-5-5-5-5-5-5-5-5-5-5-5-5-5-5-

---------------------------------
---------------------------------
---------------------------------
---------------------------------
-3-3-3-3-3-3-3-3-3-3-3-3-3-3-3-3-
-3-3-3-3-3-3-3-3-3-3-3-3-3-3-3-3-

---------------------------------
---------------------------------
---------------------------------
---------------------------------
-1-1-1-1-1-1-1-1-1-1-1-1-1-1-1-1-
-1-1-1-1-1-1-1-1-1-1-1-1-1-1-1-1-

---------------------------------
---------------------------------
---------------------------------
---------------------------------
-3-3-3-3-3-3-3-3-3-3-3-3-3-3-3-3-
-3-3-3-3-3-3-3-3-3-3-3-3-3-3-3-3-
(back to start)

main riff (guitar 2, medium distortion) (drop D tuning)
---------------------------------
---------------------------------
---------------------------------
---------------------------------
-7-7-7-7-7-7-7-7-7-7-7-7-7-7-7-7-
-7-7-7-7-7-7-7-7-7-7-7-7-7-7-7-7-

---------------------------------
---------------------------------
---------------------------------
---------------------------------
-5-5-5-5-5-5-5-5-5-5-5-5-5-5-5-5-
-5-5-5-5-5-5-5-5-5-5-5-5-5-5-5-5-

---------------------------------
---------------------------------
---------------------------------
---------------------------------
-3-3-3-3-3-3-3-3-3-3-3-3-3-3-3-3-
-3-3-3-3-3-3-3-3-3-3-3-3-3-3-3-3-

---------------------------------
---------------------------------
---------------------------------
---------------------------------
-5-5-5-5-5-5-5-5-5-5-5-5-5-5-5-5-
-5-5-5-5-5-5-5-5-5-5-5-5-5-5-5-5-
(back to start)

this is played by the second guitar while main riff plays
---------------------------
---------------------------
---------------------------
---------------------------
10-12-10h12-10-12-15-14-12-
---------------------------

---------------------------
---------------------------
---------------------------
---------------------------
10-12-10h12-10-12-15-14-12-
---------------------------

---------------------------
---------------------------
---------------------------
---------------------------
-12-10h12-10-12-12h10-12---
---------------------------

---------------------------
---------------------------
---------------------------
---------------------------
11-13-11h13-11-13-16-15-13-
---------------------------
[ Tab from: http://www.guitartabs.cc/tabs/t/the_music/getaway_tab_ver_3.html ]
after quiet bit, gradually builds up in volume
--------------------11--
---9---10---10--7-------
-8---8----8-------8-----
------------------------
------------------------
------------------------ x 27

---------------------------------
---------------------------------
---------------------------------
---------------------------------
-5-5-5-5-5-5-5-5-5-5-5-5-5-5-5-5-
-5-5-5-5-5-5-5-5-5-5-5-5-5-5-5-5-

---------------------------------
---------------------------------
---------------------------------
---------------------------------
-3-3-3-3-3-3-3-3-3-3-3-3-3-3-3-3-
-3-3-3-3-3-3-3-3-3-3-3-3-3-3-3-3-

---------------------------------
---------------------------------
---------------------------------
---------------------------------
-1-1-1-1-1-1-1-1-1-1-1-1-1-1-1-1-
-1-1-1-1-1-1-1-1-1-1-1-1-1-1-1-1-

---------------------------------
---------------------------------
---------------------------------
---------------------------------
-3-3-3-3-3-3-3-3-3-3-3-3-3-3-3-3-
-3-3-3-3-3-3-3-3-3-3-3-3-3-3-3-3-

(continue playing main riff while guitar 2 plays this)
---------------------------
---------------------------
---------------------------
---------------------------
10-12-10h12-10-12-15-14-12-
---------------------------

---------------------------
---------------------------
---------------------------
---------------------------
10-12-10h12-10-12-15-14-12-
---------------------------

---------------------------
---------------------------
---------------------------
---------------------------
-12-10h12-10-12-12h10-12---
---------------------------

---------------------------
---------------------------
---------------------------
---------------------------
11-13-11h13-11-13-16-15-13-
---------------------------

end bit on guitar 1
---------------------------------------------------------------------------------------------------
---------------------------------------------------------------------------------------------------
---------------------------------------------------------------------------------------------------
-8p7-5-3-0--8p7-5-3-0--8p7-5-3p1-0--8p7-5-3p1-0--8p7-5-3p1-0--8p7-5-3p1-0--8p7-5-3p1-0--8p7-5-3p1-0
---------------------------------------------------------------------------------------------------
---------------------------------------------------------------------------------------------------

---------------------------------------------------------------------------------------------------
---------------------------------------------------------------------------------------------------
---------------------------------------------------------------------------------------------------
-8p7-5-3-0--8p7-5-3-0--8p7-5-3p1-0--8p7-5-3p1-0--8p7-5-3p1-0--8p7-5-3p1-0--8p7-5-3p1-0--8p7-5-3p1-0
---------------------------------------------------------------------------------------------------
---------------------------------------------------------------------------------------------------
Comments