The Music - Getaway Chords & Tabs

 

Getaway Chords & Tabs

The Music Chords & Tabs

Version: 2 Type: Tab 0 ratings
1 star 2 stars 3 stars 4 stars 5 stars
comments

Getaway Tab

   
Get Away by The Music

Simple song, in Drop D Tuning. 

[-----------------------------Guitar 1-----------------------------]

- singer's part, really really easy....only during chorus and interlude.

E|--------------------|
B|--------------------|
G|--------------------|
D|-5-5--3-3--1-1--3-3-|
A|-5-5--3-3--1-1--3-3-|
D|-5-5--3-3--1-1--3-3-|


[-----------------------------Guitar 2-----------------------------]

-Also in Drop D, more stuff. 

Intro/interlude - repeat

E|------------------10-|
B|------8p0-9p0-8p0----|
G|-10p0----------------|
D|---------------------|
A|---------------------|
D|---------------------|

Chorus 

E|--------------------|
B|--------------------|
G|--------------------|
D|----------------8-7-|
A|-8-10-8-10-8-10-----|
D|--------------------| x3
[ Tab from: http://www.guitartabs.cc/tabs/t/the_music/getaway_tab_ver_2.html ]
E|-------------------------------------|
B|-------------------------------------|
G|-------------------------------------|
D|-------------------------------------|
A|-10-12-10-12-10-12-10-12-10-12-10-12-|
D|-------------------------------------|

Ending - Repeat the whole thing twice

E|-------------------------|
B|-------------------------|
G|-------------------------|
D|---8-7----------8-7------|
A|-5----10-8----5-----10-8-|
D|-------------------------|

E|--------------------------|
B|--------------------------|
G|--------------------------|
D|----8-7------------8-7----|
A|-------10-8----------10-8-|
D|-10------------10---------|

E|-------------------------------------|
B|-------------------------------------|
G|-------------------------------------|
D|---8-7----------8-7----------8-7-----|
A|------10-8---------10-8---------10-8-|
D|-8------------8-----------10---------|
Comments