The Music - Freedom Fighters Chords & Tabs

 

Freedom Fighters Chords & Tabs

The Music Chords & Tabs

Version: 4 Type: Tab 0 ratings
1 star 2 stars 3 stars 4 stars 5 stars
comments

Freedom Fighters Tab

   
-----------------------------------------------------------------------------
     FREEDOM FIGHTERS - The Music
-----------------------------------------------------------------------------
Tabbed by:David Summers
Email:essexdave@hotmail.com

| /  slide up
| \  slide down
| h  hammer-on
| p  pull-off
| ~  vibrato
| +  harmonic
| x  Mute note
| bu Bend note up
| bd Bend note down

Tuning: Standard tuning

Intro - play four times
e|--------------------------------------------|
B|--------------------------------------------|
G|--------------------------------------------|
D|---------------------------0-0-4h5-----0h2--|
A|-----------------------------------3-3------|
E|--5-5\2/5-5-5\2/5-5-5\2/5-------------------|

Verse 1 - play four times, the timings aren't precise, it's played different            every time
e|------------------------|---------------------|
B|------------------------|---------------------|
G|--2-2-----2--2-2-----2--|-2-2-----2-----------|
D|--2-2-----2--2-2-----2--|-2-2-----2-x-3-3--3--|
A|--0-0-----0--0-0-----0--|-0-0-----0-x-3-3--3--|
E|------3bu--------3bu----|-----3bu---x-1-1--1--|

Bridge
e|--------------|------------|------------|------------|------------|
B|--------7---5-|----777---5-|----777---5-|----777---5-|----777---5-|
G|--------7---5-|----777---5-|----777---5-|----777---5-|----777---5-|
D|-7\-5h7-------|-7\-777---5-|-7\-777-5---|-7\-777---5-|-7\-777---5-|
A|----------7---|--------7---|------------|--------7---|--------7---|
E|--------------|------------|------------|------------|------------|

e|------------|------------|------------|
B|----777---5-|----777---5-|----777---5-|
G|----777---5-|----777---5-|----777---5-|
D|-7\-777---5-|-7\-777-5---|-7\-777---5-|
A|--------7---|------------|--------7---|
E|------------|------------|------------|

Chorus
Guitar 1 (quieter) - three times
e|-------------------|----------------------------|
B|-----7h8-8-----7h8-|-8-----7h8------------------|
G|-----7h9-9-----7h9-|-9-----7h9------------------|
D|-2---7---7--2--7---|-7--2--7---0-0-4p0-----0h2--|
A|-0----------0------|----0--------------3-3------|
E|-------------------|----------------------------|
Guitar 2 (main) - three times
e|--------------------|---------------------|
B|-----7h8-8------7h8-|-8------7h8-88887h8--|
G|-----7h9-9------7h9-|-9------7h9-99997----|
D|-2---7---7--2---7---|-7--2---7------------|
A|-0----------0-------|----0----------------|
E|--------------------|---------------------|
Then both guitars play Guitar 2 once to end the chorus
[ Tab from: http://www.guitartabs.cc/tabs/t/the_music/freedom_fighters_tab_ver_4.html ]
Solo
e|-------------------------------------|
B|-5bu---------------------7bu-7bu-7-5-|
G|-5bu---------------------7bu-7bu-7-5-|
D|-----7p5-7-777p5-7-777p5-------------|
A|-------------------------------------|
E|-------------------------------------|

e|--------------------------------------------------|
B|-5bu----------------------------------------------|
G|-5bu--------------------5----------5---------5bu--|
D|-----7p5-7-777p5-7------5h6h7------5h6h7-----5bu--|
A|-------------------5h6h7-----5h6h7------5h6h7-----|
E|--------------------------------------------------|

Verse 2 - play four times, the timings aren't precise, it's played different            every time
e|------------------------|---------------------|
B|------------------------|---------------------|
G|--2-2-----2--2-2-----2--|-2-2-----2-----------|
D|--2-2-----2--2-2-----2--|-2-2-----2-x-3-3--3--|
A|--0-0-----0--0-0-----0--|-0-0-----0-x-3-3--3--|
E|------3bu--------3bu----|-----3bu---x-1-1--1--|

Bridge
e|--------------|------------|------------|------------|------------|
B|--------7---5-|----777---5-|----777---5-|----777---5-|----777---5-|
G|--------7---5-|----777---5-|----777---5-|----777---5-|----777---5-|
D|-7\-5h7-------|-7\-777---5-|-7\-777-5---|-7\-777---5-|-7\-777---5-|
A|----------7---|--------7---|------------|--------7---|--------7---|
E|--------------|------------|------------|------------|------------|

e|------------|------------|------------|
B|----777---5-|----777---5-|----777---5-|
G|----777---5-|----777---5-|----777---5-|
D|-7\-777---5-|-7\-777-5---|-7\-777---5-|
A|--------7---|------------|--------7---|
E|------------|------------|------------|

Chorus
Guitar 1 (quieter) - three times
e|-------------------|----------------------------|
B|-----7h8-8-----7h8-|-8-----7h8------------------|
G|-----7h9-9-----7h9-|-9-----7h9------------------|
D|-2---7---7--2--7---|-7--2--7---0-0-4p0-----0h2--|
A|-0----------0------|----0--------------3-3------|
E|-------------------|----------------------------|
Guitar 2 (main) - three times
e|--------------------|---------------------|
B|-----7h8-8------7h8-|-8------7h8-88887h8--|
G|-----7h9-9------7h9-|-9------7h9-99997----|
D|-2---7---7--2---7---|-7--2---7------------|
A|-0----------0-------|----0----------------|
E|--------------------|---------------------|
Then both guitars play Guitar 2 once to end the chorus

Middle 8
Guitar 1 - play eight times, backing part
e|----------------------|
B|-----7h8-8------7h8-8-|
G|-----7h9-9------7h9-9-|
D|-2---7---7--2---7---7-|
A|-0----------0---------|
E|----------------------|
Guitar 2 - Solo part, play eight times
e|------------------------|
B|------------------------|
G|----9bu10bd9---6bu7bd6~-|
D|--7----------7----------|
A|------------------------|
E|------------------------|

Then Play chorus again to end, 2nd half consists of chorus guitar 2 and Middle 8 guitar 2

END

=============================================================================
Comments