The Mowglis - San Francisco Chords & Tabs

 

San Francisco Chords & Tabs

The Mowglis Chords & Tabs

Version: 1 Type: Bass Tab 0 ratings
1 star 2 stars 3 stars 4 stars 5 stars
comments

San Francisco Bass Tab

(Intro, No bass)

Verse/Chorus:
G|-------------------------------------------------------------------|
D|-1----------------------2-2--2--------2-2--2--------1-1--1-1-1-1-1-| 
A|---4-2-1---------2-2--2--------2-2--2--------2-2--2----------------|
E|---------4-4--4----------------------------------------------------|
                                                                         X2
G|-------------------------------------------------------------------|
D|---------------2-2--2--------2-2--2--------1-1--1------------------| 
A|--------2-2--2--------2-2--2--------2-2--2-------------------------|
E|-4-4--4------------------------------------------------------------|

Verse:
G|-------------------------------------------------------------------|
D|-1-------------------2---2-------2---2-------1----1-1-1------------| 
A|---4-2-1-------2---2-------2---2-------2---2-----------------------|
E|---------4---4-----------------------------------------------------|
Chorus:
G|-------------------------------------------------------------------|
D|---------------2-2--2--------2-2--2--------1-1--1-1-1-1-1----------| 
A|--------2-2--2--------2-2--2--------2-2--2-------------------------|
E|-4-4--4------------------------------------------------------------|
[ Tab from: http://www.guitartabs.cc/tabs/t/the_mowglis/san_francisco_btab.html ]
Bridge:
G|--------------------------------------------------------------------|
D|--------------------------------------------------------------------| 
A|-----1-1-2-2-4-4-----1-1-2-2-4-4-----1-1-2-2-4-4-----1-1-2-2-4-4----|
E|-4-4-------------4-4-------------4-4-------------4-4----------------|

G|---------------------------------------------------------------|
D|---------------------------------------------------------------| 
A|---2-4---2-4---2-----1-1-2-2-4-4---2-4---2-4---2---------------|
E|-4-----4-----4---4-4-------------4-----4-----4---4-4-4-4-4-----|

(Musical break, No bass)

G|-------------------------------------------------------------------------|
D|------------------------------2-2--2--------2-2--2--------1-1--1-1-------| 
A|-2/6----6-4-2-1--------2-2--2--------2-2--2--------2-2--2----------4-2-1-|
E|----------------4-4--4---------------------------------------------------|

Chorus:
G|-------------------------------------------------------------------|
D|---------------2-2--2--------2-2--2--------1-1--1-1-1-1-1----------| 
A|--------2-2--2--------2-2--2--------2-2--2-------------------------| X2
E|-4-4--4------------------------------------------------------------|

Outtro:
G|-----------------------|
D|-1-1-------------------|
A|-----4-4-2-2-1h2-1-----|
E|-------------------4---|
Comments